ISO-10303-21;
HEADER;
FILE_DESCRIPTION (( 'STEP AP203' ),
    '1' );
FILE_NAME ('7ee0.STEP',
    '2022-07-07T12:30:02',
    ( '' ),
    ( '' ),
    'SwSTEP 2.0',
    'SolidWorks 2019',
    '' );
FILE_SCHEMA (( 'CONFIG_CONTROL_DESIGN' ));
ENDSEC;

DATA;
#1 = CARTESIAN_POINT ( 'NONE',  ( 4.699999999999999289, 0.000000000000000000, 5.200000000000009948 ) ) ;
#2 = ADVANCED_BREP_SHAPE_REPRESENTATION ( '7ee0', ( #138, #43 ), #161 ) ;
#3 = VERTEX_POINT ( 'NONE', #120 ) ;
#4 = PRODUCT_DEFINITION ( 'NEZNÁMÝ', '', #126, #10 ) ;
#5 = AXIS2_PLACEMENT_3D ( 'NONE', #268, #159, #269 ) ;
#6 = ORIENTED_EDGE ( 'NONE', *, *, #35, .T. ) ;
#7 = AXIS2_PLACEMENT_3D ( 'NONE', #58, #187, #29 ) ;
#8 = EDGE_CURVE ( 'NONE', #287, #78, #75, .T. ) ;
#9 = CYLINDRICAL_SURFACE ( 'NONE', #5, 7.000000000000000000 ) ;
#10 = DESIGN_CONTEXT ( 'detailed design', #164, 'design' ) ;
#11 = CIRCLE ( 'NONE', #195, 4.699999999999999289 ) ;
#12 = CARTESIAN_POINT ( 'NONE',  ( 0.000000000000000000, 0.000000000000000000, 5.000000000000000000 ) ) ;
#13 = EDGE_CURVE ( 'NONE', #237, #140, #133, .T. ) ;
#14 = FACE_OUTER_BOUND ( 'NONE', #151, .T. ) ;
#15 = DATE_AND_TIME ( #299, #209 ) ;
#16 = MECHANICAL_CONTEXT ( 'NONE', #127, 'mechanical' ) ;
#17 = EDGE_CURVE ( 'NONE', #168, #118, #208, .T. ) ;
#18 = CARTESIAN_POINT ( 'NONE',  ( 4.500000000000000000, 5.510910596163088569E-16, 165.0000000000000000 ) ) ;
#19 = APPROVAL_STATUS ( 'not_yet_approved' ) ;
#20 = CIRCLE ( 'NONE', #179, 7.000000000000000000 ) ;
#21 = CARTESIAN_POINT ( 'NONE',  ( 7.000000000000000000, 8.572527594031473190E-16, 0.000000000000000000 ) ) ;
#22 = ORIENTED_EDGE ( 'NONE', *, *, #185, .F. ) ;
#23 = PERSON_AND_ORGANIZATION ( #103, #214 ) ;
#24 = VECTOR ( 'NONE', #144, 1000.000000000000000 ) ;
#25 = ORIENTED_EDGE ( 'NONE', *, *, #35, .F. ) ;
#26 = AXIS2_PLACEMENT_3D ( 'NONE', #36, #271, #65 ) ;
#27 = DIRECTION ( 'NONE',  ( 1.000000000000000000, 0.000000000000000000, 0.000000000000000000 ) ) ;
#28 = ORIENTED_EDGE ( 'NONE', *, *, #13, .T. ) ;
#29 = DIRECTION ( 'NONE',  ( 1.000000000000000000, 0.000000000000000000, 0.000000000000000000 ) ) ;
#30 = ORIENTED_EDGE ( 'NONE', *, *, #8, .F. ) ;
#31 = AXIS2_PLACEMENT_3D ( 'NONE', #81, #216, #101 ) ;
#32 = CARTESIAN_POINT ( 'NONE',  ( -4.699999999999999289, 5.755839955992558669E-16, 5.200000000000009948 ) ) ;
#33 = CC_DESIGN_APPROVAL ( #64, ( #186 ) ) ;
#34 = FACE_OUTER_BOUND ( 'NONE', #115, .T. ) ;
#35 = EDGE_CURVE ( 'NONE', #80, #124, #304, .T. ) ;
#36 = CARTESIAN_POINT ( 'NONE',  ( 0.000000000000000000, 0.000000000000000000, 5.200000000000009948 ) ) ;
#37 = DIRECTION ( 'NONE',  ( -1.000000000000000000, 0.000000000000000000, 0.000000000000000000 ) ) ;
#38 = DIRECTION ( 'NONE',  ( 1.000000000000000000, 0.000000000000000000, 0.000000000000000000 ) ) ;
#39 = CIRCLE ( 'NONE', #117, 4.500000000000000000 ) ;
#40 = DATE_AND_TIME ( #44, #88 ) ;
#41 = AXIS2_PLACEMENT_3D ( 'NONE', #302, #283, #76 ) ;
#42 = CARTESIAN_POINT ( 'NONE',  ( 0.000000000000000000, 0.000000000000000000, 0.000000000000000000 ) ) ;
#43 = AXIS2_PLACEMENT_3D ( 'NONE', #42, #116, #225 ) ;
#44 = CALENDAR_DATE ( 2022, 7, 7 ) ;
#45 = EDGE_LOOP ( 'NONE', ( #121, #190, #147, #125 ) ) ;
#46 = CALENDAR_DATE ( 2022, 7, 7 ) ;
#47 = TOROIDAL_SURFACE ( 'NONE', #295, 4.699999999999999289, 0.2000000000000000111 ) ;
#48 = LINE ( 'NONE', #114, #24 ) ;
#49 = ORIENTED_EDGE ( 'NONE', *, *, #153, .T. ) ;
#50 = COORDINATED_UNIVERSAL_TIME_OFFSET ( 1, 0, .AHEAD. ) ;
#51 = AXIS2_PLACEMENT_3D ( 'NONE', #106, #290, #107 ) ;
#52 = CARTESIAN_POINT ( 'NONE',  ( -7.000000000000000000, 0.000000000000000000, 0.000000000000000000 ) ) ;
#53 = CC_DESIGN_PERSON_AND_ORGANIZATION_ASSIGNMENT ( #231, #134, ( #186 ) ) ;
#54 = ORIENTED_EDGE ( 'NONE', *, *, #306, .T. ) ;
#55 = ORIENTED_EDGE ( 'NONE', *, *, #166, .F. ) ;
#56 = ORIENTED_EDGE ( 'NONE', *, *, #185, .T. ) ;
#57 = AXIS2_PLACEMENT_3D ( 'NONE', #173, #63, #156 ) ;
#58 = CARTESIAN_POINT ( 'NONE',  ( 0.000000000000000000, 0.000000000000000000, 5.200000000000009948 ) ) ;
#59 = ORIENTED_EDGE ( 'NONE', *, *, #113, .T. ) ;
#60 = DIRECTION ( 'NONE',  ( 1.000000000000000000, 0.000000000000000000, 0.000000000000000000 ) ) ;
#61 = FACE_OUTER_BOUND ( 'NONE', #191, .T. ) ;
#62 = APPROVAL ( #213, 'NEURÈENÝ' ) ;
#63 = DIRECTION ( 'NONE',  ( -0.000000000000000000, -0.000000000000000000, -1.000000000000000000 ) ) ;
#64 = APPROVAL ( #19, 'NEURÈENÝ' ) ;
#65 = DIRECTION ( 'NONE',  ( 1.000000000000000000, 0.000000000000000000, 0.000000000000000000 ) ) ;
#66 = DIRECTION ( 'NONE',  ( 0.000000000000000000, 0.000000000000000000, 1.000000000000000000 ) ) ;
#67 = APPROVAL_PERSON_ORGANIZATION ( #206, #70, #256 ) ;
#68 = CARTESIAN_POINT ( 'NONE',  ( 4.500000000000000000, 5.510910596163088569E-16, 5.200000000000009948 ) ) ;
#69 = SHAPE_DEFINITION_REPRESENTATION ( #143, #2 ) ;
#70 = APPROVAL ( #228, 'NEURÈENÝ' ) ;
#71 =( NAMED_UNIT ( * ) SI_UNIT ( $, .STERADIAN. ) SOLID_ANGLE_UNIT ( ) );
#72 = ORIENTED_EDGE ( 'NONE', *, *, #77, .T. ) ;
#73 = EDGE_CURVE ( 'NONE', #152, #118, #170, .T. ) ;
#74 = APPROVAL_ROLE ( '' ) ;
#75 = CIRCLE ( 'NONE', #258, 0.1999999999999996503 ) ;
#76 = DIRECTION ( 'NONE',  ( 1.000000000000000000, 0.000000000000000000, -0.000000000000000000 ) ) ;
#77 = EDGE_CURVE ( 'NONE', #124, #80, #39, .T. ) ;
#78 = VERTEX_POINT ( 'NONE', #255 ) ;
#79 = LOCAL_TIME ( 14, 30, 2.000000000000000000, #50 ) ;
#80 = VERTEX_POINT ( 'NONE', #281 ) ;
#81 = CARTESIAN_POINT ( 'NONE',  ( 0.000000000000000000, 0.000000000000000000, 0.000000000000000000 ) ) ;
#82 = VECTOR ( 'NONE', #267, 1000.000000000000000 ) ;
#83 = DIRECTION ( 'NONE',  ( 0.000000000000000000, 0.000000000000000000, 1.000000000000000000 ) ) ;
#84 = CC_DESIGN_APPROVAL ( #62, ( #4 ) ) ;
#85 = DIRECTION ( 'NONE',  ( 1.000000000000000000, 0.000000000000000000, 0.000000000000000000 ) ) ;
#86 = DIRECTION ( 'NONE',  ( -0.000000000000000000, -0.000000000000000000, -1.000000000000000000 ) ) ;
#87 = DIRECTION ( 'NONE',  ( -0.000000000000000000, -0.000000000000000000, -1.000000000000000000 ) ) ;
#88 = LOCAL_TIME ( 14, 30, 2.000000000000000000, #160 ) ;
#89 = CC_DESIGN_PERSON_AND_ORGANIZATION_ASSIGNMENT ( #23, #182, ( #301 ) ) ;
#90 = PERSON_AND_ORGANIZATION ( #103, #214 ) ;
#91 = LOCAL_TIME ( 14, 30, 2.000000000000000000, #142 ) ;
#92 = DIRECTION ( 'NONE',  ( 0.000000000000000000, 0.000000000000000000, 1.000000000000000000 ) ) ;
#93 =( NAMED_UNIT ( * ) PLANE_ANGLE_UNIT ( ) SI_UNIT ( $, .RADIAN. ) );
#94 = CARTESIAN_POINT ( 'NONE',  ( -4.699999999999999289, 5.755839955992558669E-16, 5.000000000000005329 ) ) ;
#95 = CC_DESIGN_PERSON_AND_ORGANIZATION_ASSIGNMENT ( #188, #252, ( #4 ) ) ;
#96 = ORIENTED_EDGE ( 'NONE', *, *, #212, .T. ) ;
#97 = AXIS2_PLACEMENT_3D ( 'NONE', #32, #288, #300 ) ;
#98 = EDGE_LOOP ( 'NONE', ( #96, #149 ) ) ;
#99 = EDGE_LOOP ( 'NONE', ( #72, #6 ) ) ;
#100 = DIRECTION ( 'NONE',  ( 0.000000000000000000, 0.000000000000000000, 1.000000000000000000 ) ) ;
#101 = DIRECTION ( 'NONE',  ( 1.000000000000000000, 0.000000000000000000, 0.000000000000000000 ) ) ;
#102 = DIRECTION ( 'NONE',  ( 0.000000000000000000, -1.000000000000000000, 0.000000000000000000 ) ) ;
#103 = PERSON ( 'NEURÈENÝ', 'NEURÈENÝ', 'NEURÈENÝ', ('NEURÈENÝ'), ('NEURÈENÝ'), ('NEURÈENÝ') ) ;
#104 = DIRECTION ( 'NONE',  ( 1.000000000000000000, 0.000000000000000000, 0.000000000000000000 ) ) ;
#105 = CARTESIAN_POINT ( 'NONE',  ( -7.000000000000000000, 0.000000000000000000, 5.000000000000000000 ) ) ;
#106 = CARTESIAN_POINT ( 'NONE',  ( 0.000000000000000000, 0.000000000000000000, 5.000000000000000000 ) ) ;
#107 = DIRECTION ( 'NONE',  ( 1.000000000000000000, 0.000000000000000000, 0.000000000000000000 ) ) ;
#108 = EDGE_CURVE ( 'NONE', #80, #287, #241, .T. ) ;
#109 = COORDINATED_UNIVERSAL_TIME_OFFSET ( 1, 0, .AHEAD. ) ;
#110 = CALENDAR_DATE ( 2022, 7, 7 ) ;
#111 = ORIENTED_EDGE ( 'NONE', *, *, #119, .F. ) ;
#112 = PERSON_AND_ORGANIZATION ( #103, #214 ) ;
#113 = EDGE_CURVE ( 'NONE', #237, #287, #289, .T. ) ;
#114 = CARTESIAN_POINT ( 'NONE',  ( -4.500000000000000000, 0.000000000000000000, 165.0000000000000000 ) ) ;
#115 = EDGE_LOOP ( 'NONE', ( #194, #236, #49, #196 ) ) ;
#116 = DIRECTION ( 'NONE',  ( 0.000000000000000000, 0.000000000000000000, 1.000000000000000000 ) ) ;
#117 = AXIS2_PLACEMENT_3D ( 'NONE', #257, #100, #60 ) ;
#118 = VERTEX_POINT ( 'NONE', #21 ) ;
#119 = EDGE_CURVE ( 'NONE', #124, #237, #48, .T. ) ;
#120 = CARTESIAN_POINT ( 'NONE',  ( -7.000000000000000000, 0.000000000000000000, 5.000000000000000000 ) ) ;
#121 = ORIENTED_EDGE ( 'NONE', *, *, #17, .F. ) ;
#122 = PLANE ( 'NONE',  #41 ) ;
#123 = VECTOR ( 'NONE', #265, 1000.000000000000000 ) ;
#124 = VERTEX_POINT ( 'NONE', #232 ) ;
#125 = ORIENTED_EDGE ( 'NONE', *, *, #73, .T. ) ;
#126 = PRODUCT_DEFINITION_FORMATION_WITH_SPECIFIED_SOURCE ( 'LIBOVOLNÝ', '', #301, .NOT_KNOWN. ) ;
#127 = APPLICATION_CONTEXT ( 'configuration controlled 3d designs of mechanical parts and assemblies' ) ;
#128 = DIRECTION ( 'NONE',  ( 0.000000000000000000, 0.000000000000000000, 1.000000000000000000 ) ) ;
#129 = DIRECTION ( 'NONE',  ( -0.000000000000000000, -0.000000000000000000, -1.000000000000000000 ) ) ;
#130 = DIRECTION ( 'NONE',  ( 1.000000000000000000, 0.000000000000000000, -0.000000000000000000 ) ) ;
#131 = CARTESIAN_POINT ( 'NONE',  ( 0.000000000000000000, 0.000000000000000000, 0.000000000000000000 ) ) ;
#132 = CARTESIAN_POINT ( 'NONE',  ( -4.500000000000000000, 0.000000000000000000, 5.200000000000009948 ) ) ;
#133 = CIRCLE ( 'NONE', #97, 0.1999999999999996503 ) ;
#134 = PERSON_AND_ORGANIZATION_ROLE ( 'classification_officer' ) ;
#135 = CC_DESIGN_PERSON_AND_ORGANIZATION_ASSIGNMENT ( #139, #282, ( #126 ) ) ;
#136 = AXIS2_PLACEMENT_3D ( 'NONE', #201, #86, #37 ) ;
#137 = PERSON_AND_ORGANIZATION ( #103, #214 ) ;
#138 = MANIFOLD_SOLID_BREP ( 'Zaoblit1', #183 ) ;
#139 = PERSON_AND_ORGANIZATION ( #103, #214 ) ;
#140 = VERTEX_POINT ( 'NONE', #94 ) ;
#141 = ADVANCED_FACE ( 'NONE', ( #215 ), #122, .T. ) ;
#142 = COORDINATED_UNIVERSAL_TIME_OFFSET ( 1, 0, .AHEAD. ) ;
#143 = PRODUCT_DEFINITION_SHAPE ( 'NONE', 'NONE',  #4 ) ;
#144 = DIRECTION ( 'NONE',  ( -0.000000000000000000, -0.000000000000000000, -1.000000000000000000 ) ) ;
#145 = AXIS2_PLACEMENT_3D ( 'NONE', #247, #244, #130 ) ;
#146 = DIRECTION ( 'NONE',  ( 0.000000000000000000, 0.000000000000000000, 1.000000000000000000 ) ) ;
#147 = ORIENTED_EDGE ( 'NONE', *, *, #272, .T. ) ;
#148 = ADVANCED_FACE ( 'NONE', ( #165 ), #47, .F. ) ;
#149 = ORIENTED_EDGE ( 'NONE', *, *, #166, .T. ) ;
#150 = ORIENTED_EDGE ( 'NONE', *, *, #174, .T. ) ;
#151 = EDGE_LOOP ( 'NONE', ( #217, #242, #266, #59 ) ) ;
#152 = VERTEX_POINT ( 'NONE', #52 ) ;
#153 = EDGE_CURVE ( 'NONE', #118, #152, #251, .T. ) ;
#154 = ORIENTED_EDGE ( 'NONE', *, *, #113, .F. ) ;
#155 = FACE_BOUND ( 'NONE', #98, .T. ) ;
#156 = DIRECTION ( 'NONE',  ( -1.000000000000000000, 0.000000000000000000, 0.000000000000000000 ) ) ;
#157 = DIRECTION ( 'NONE',  ( 1.000000000000000000, 0.000000000000000000, -0.000000000000000000 ) ) ;
#158 = CYLINDRICAL_SURFACE ( 'NONE', #263, 7.000000000000000000 ) ;
#159 = DIRECTION ( 'NONE',  ( -0.000000000000000000, -0.000000000000000000, -1.000000000000000000 ) ) ;
#160 = COORDINATED_UNIVERSAL_TIME_OFFSET ( 1, 0, .AHEAD. ) ;
#161 =( GEOMETRIC_REPRESENTATION_CONTEXT ( 3 ) GLOBAL_UNCERTAINTY_ASSIGNED_CONTEXT ( ( #233 ) ) GLOBAL_UNIT_ASSIGNED_CONTEXT ( ( #198, #93, #71 ) ) REPRESENTATION_CONTEXT ( 'NONE', 'WORKASPACE' ) );
#162 = CARTESIAN_POINT ( 'NONE',  ( 7.000000000000000000, 8.572527594031473190E-16, 5.000000000000000000 ) ) ;
#163 = DATE_TIME_ROLE ( 'creation_date' ) ;
#164 = APPLICATION_CONTEXT ( 'configuration controlled 3d designs of mechanical parts and assemblies' ) ;
#165 = FACE_OUTER_BOUND ( 'NONE', #303, .T. ) ;
#166 = EDGE_CURVE ( 'NONE', #140, #78, #11, .T. ) ;
#167 = EDGE_LOOP ( 'NONE', ( #54, #150 ) ) ;
#168 = VERTEX_POINT ( 'NONE', #222 ) ;
#169 = ORIENTED_EDGE ( 'NONE', *, *, #212, .F. ) ;
#170 = CIRCLE ( 'NONE', #31, 7.000000000000000000 ) ;
#171 = CARTESIAN_POINT ( 'NONE',  ( 0.000000000000000000, 0.000000000000000000, 5.000000000000000000 ) ) ;
#172 = AXIS2_PLACEMENT_3D ( 'NONE', #192, #92, #211 ) ;
#173 = CARTESIAN_POINT ( 'NONE',  ( 0.000000000000000000, 0.000000000000000000, 165.0000000000000000 ) ) ;
#174 = EDGE_CURVE ( 'NONE', #168, #3, #261, .T. ) ;
#175 = CIRCLE ( 'NONE', #275, 4.500000000000000000 ) ;
#176 = FACE_OUTER_BOUND ( 'NONE', #260, .T. ) ;
#177 = FACE_OUTER_BOUND ( 'NONE', #167, .T. ) ;
#178 = CARTESIAN_POINT ( 'NONE',  ( 0.000000000000000000, 0.000000000000000000, 5.200000000000009948 ) ) ;
#179 = AXIS2_PLACEMENT_3D ( 'NONE', #223, #128, #220 ) ;
#180 = PRODUCT_RELATED_PRODUCT_CATEGORY ( 'detail', '', ( #301 ) ) ;
#181 = APPROVAL_ROLE ( '' ) ;
#182 = PERSON_AND_ORGANIZATION_ROLE ( 'design_owner' ) ;
#183 = CLOSED_SHELL ( 'NONE', ( #148, #276, #197, #205, #292, #227, #193, #141, #219 ) ) ;
#184 = CALENDAR_DATE ( 2022, 7, 7 ) ;
#185 = EDGE_CURVE ( 'NONE', #287, #237, #175, .T. ) ;
#186 = SECURITY_CLASSIFICATION ( '', '', #229 ) ;
#187 = DIRECTION ( 'NONE',  ( 0.000000000000000000, 0.000000000000000000, 1.000000000000000000 ) ) ;
#188 = PERSON_AND_ORGANIZATION ( #103, #214 ) ;
#189 = DIRECTION ( 'NONE',  ( 0.000000000000000000, 0.000000000000000000, -1.000000000000000000 ) ) ;
#190 = ORIENTED_EDGE ( 'NONE', *, *, #306, .F. ) ;
#191 = EDGE_LOOP ( 'NONE', ( #25, #240, #56, #111 ) ) ;
#192 = CARTESIAN_POINT ( 'NONE',  ( 0.000000000000000000, 0.000000000000000000, 165.0000000000000000 ) ) ;
#193 = ADVANCED_FACE ( 'NONE', ( #14 ), #199, .T. ) ;
#194 = ORIENTED_EDGE ( 'NONE', *, *, #174, .F. ) ;
#195 = AXIS2_PLACEMENT_3D ( 'NONE', #171, #202, #38 ) ;
#196 = ORIENTED_EDGE ( 'NONE', *, *, #272, .F. ) ;
#197 = ADVANCED_FACE ( 'NONE', ( #34 ), #9, .T. ) ;
#198 =( LENGTH_UNIT ( ) NAMED_UNIT ( * ) SI_UNIT ( .MILLI., .METRE. ) );
#199 = CYLINDRICAL_SURFACE ( 'NONE', #57, 4.500000000000000000 ) ;
#200 = APPROVAL_PERSON_ORGANIZATION ( #137, #62, #181 ) ;
#201 = CARTESIAN_POINT ( 'NONE',  ( 0.000000000000000000, 0.000000000000000000, 165.0000000000000000 ) ) ;
#202 = DIRECTION ( 'NONE',  ( -0.000000000000000000, -0.000000000000000000, -1.000000000000000000 ) ) ;
#203 = CYLINDRICAL_SURFACE ( 'NONE', #136, 4.500000000000000000 ) ;
#204 = APPROVAL_DATE_TIME ( #207, #70 ) ;
#205 = ADVANCED_FACE ( 'NONE', ( #246 ), #158, .T. ) ;
#206 = PERSON_AND_ORGANIZATION ( #103, #214 ) ;
#207 = DATE_AND_TIME ( #46, #264 ) ;
#208 = LINE ( 'NONE', #162, #123 ) ;
#209 = LOCAL_TIME ( 14, 30, 2.000000000000000000, #109 ) ;
#210 = PERSON_AND_ORGANIZATION_ROLE ( 'creator' ) ;
#211 = DIRECTION ( 'NONE',  ( 1.000000000000000000, 0.000000000000000000, 0.000000000000000000 ) ) ;
#212 = EDGE_CURVE ( 'NONE', #78, #140, #307, .T. ) ;
#213 = APPROVAL_STATUS ( 'not_yet_approved' ) ;
#214 = ORGANIZATION ( 'NEURÈENÝ', 'NEURÈENÝ', '' ) ;
#215 = FACE_OUTER_BOUND ( 'NONE', #99, .T. ) ;
#216 = DIRECTION ( 'NONE',  ( 0.000000000000000000, 0.000000000000000000, 1.000000000000000000 ) ) ;
#217 = ORIENTED_EDGE ( 'NONE', *, *, #108, .F. ) ;
#218 = TOROIDAL_SURFACE ( 'NONE', #26, 4.699999999999999289, 0.2000000000000000111 ) ;
#219 = ADVANCED_FACE ( 'NONE', ( #176 ), #218, .F. ) ;
#220 = DIRECTION ( 'NONE',  ( 1.000000000000000000, 0.000000000000000000, 0.000000000000000000 ) ) ;
#221 = DIRECTION ( 'NONE',  ( -1.000000000000000000, 0.000000000000000000, 0.000000000000000000 ) ) ;
#222 = CARTESIAN_POINT ( 'NONE',  ( 7.000000000000000000, 8.572527594031473190E-16, 5.000000000000000000 ) ) ;
#223 = CARTESIAN_POINT ( 'NONE',  ( 0.000000000000000000, 0.000000000000000000, 5.000000000000000000 ) ) ;
#224 = PLANE ( 'NONE',  #245 ) ;
#225 = DIRECTION ( 'NONE',  ( 1.000000000000000000, 0.000000000000000000, 0.000000000000000000 ) ) ;
#226 = CC_DESIGN_APPROVAL ( #70, ( #126 ) ) ;
#227 = ADVANCED_FACE ( 'NONE', ( #248 ), #224, .F. ) ;
#228 = APPROVAL_STATUS ( 'not_yet_approved' ) ;
#229 = SECURITY_CLASSIFICATION_LEVEL ( 'unclassified' ) ;
#230 = ORIENTED_EDGE ( 'NONE', *, *, #8, .T. ) ;
#231 = PERSON_AND_ORGANIZATION ( #103, #214 ) ;
#232 = CARTESIAN_POINT ( 'NONE',  ( -4.500000000000000000, 0.000000000000000000, 165.0000000000000000 ) ) ;
#233 = UNCERTAINTY_MEASURE_WITH_UNIT (LENGTH_MEASURE( 1.000000000000000082E-05 ), #198, 'distance_accuracy_value', 'NONE');
#234 = CC_DESIGN_DATE_AND_TIME_ASSIGNMENT ( #15, #297, ( #186 ) ) ;
#235 = CARTESIAN_POINT ( 'NONE',  ( 0.000000000000000000, 0.000000000000000000, 5.200000000000009948 ) ) ;
#236 = ORIENTED_EDGE ( 'NONE', *, *, #17, .T. ) ;
#237 = VERTEX_POINT ( 'NONE', #132 ) ;
#238 = AXIS2_PLACEMENT_3D ( 'NONE', #285, #83, #274 ) ;
#239 = VECTOR ( 'NONE', #87, 1000.000000000000000 ) ;
#240 = ORIENTED_EDGE ( 'NONE', *, *, #108, .T. ) ;
#241 = LINE ( 'NONE', #18, #82 ) ;
#242 = ORIENTED_EDGE ( 'NONE', *, *, #77, .F. ) ;
#243 = ORIENTED_EDGE ( 'NONE', *, *, #73, .F. ) ;
#244 = DIRECTION ( 'NONE',  ( 0.000000000000000000, 0.000000000000000000, 1.000000000000000000 ) ) ;
#245 = AXIS2_PLACEMENT_3D ( 'NONE', #131, #294, #157 ) ;
#246 = FACE_OUTER_BOUND ( 'NONE', #45, .T. ) ;
#247 = CARTESIAN_POINT ( 'NONE',  ( 0.000000000000000000, 0.000000000000000000, 5.000000000000000000 ) ) ;
#248 = FACE_OUTER_BOUND ( 'NONE', #305, .T. ) ;
#249 = APPROVAL_DATE_TIME ( #40, #62 ) ;
#250 = CC_DESIGN_DATE_AND_TIME_ASSIGNMENT ( #259, #163, ( #4 ) ) ;
#251 = CIRCLE ( 'NONE', #238, 7.000000000000000000 ) ;
#252 = PERSON_AND_ORGANIZATION_ROLE ( 'creator' ) ;
#253 = APPROVAL_PERSON_ORGANIZATION ( #90, #64, #74 ) ;
#254 = APPLICATION_PROTOCOL_DEFINITION ( 'international standard', 'config_control_design', 1994, #127 ) ;
#255 = CARTESIAN_POINT ( 'NONE',  ( 4.699999999999999289, 0.000000000000000000, 5.000000000000005329 ) ) ;
#256 = APPROVAL_ROLE ( '' ) ;
#257 = CARTESIAN_POINT ( 'NONE',  ( 0.000000000000000000, 0.000000000000000000, 165.0000000000000000 ) ) ;
#258 = AXIS2_PLACEMENT_3D ( 'NONE', #1, #102, #189 ) ;
#259 = DATE_AND_TIME ( #110, #91 ) ;
#260 = EDGE_LOOP ( 'NONE', ( #286, #22, #230, #55 ) ) ;
#261 = CIRCLE ( 'NONE', #51, 7.000000000000000000 ) ;
#262 = CC_DESIGN_PERSON_AND_ORGANIZATION_ASSIGNMENT ( #112, #210, ( #126 ) ) ;
#263 = AXIS2_PLACEMENT_3D ( 'NONE', #291, #129, #221 ) ;
#264 = LOCAL_TIME ( 14, 30, 2.000000000000000000, #298 ) ;
#265 = DIRECTION ( 'NONE',  ( -0.000000000000000000, -0.000000000000000000, -1.000000000000000000 ) ) ;
#266 = ORIENTED_EDGE ( 'NONE', *, *, #119, .T. ) ;
#267 = DIRECTION ( 'NONE',  ( -0.000000000000000000, -0.000000000000000000, -1.000000000000000000 ) ) ;
#268 = CARTESIAN_POINT ( 'NONE',  ( 0.000000000000000000, 0.000000000000000000, 5.000000000000000000 ) ) ;
#269 = DIRECTION ( 'NONE',  ( -1.000000000000000000, 0.000000000000000000, 0.000000000000000000 ) ) ;
#270 = AXIS2_PLACEMENT_3D ( 'NONE', #12, #273, #85 ) ;
#271 = DIRECTION ( 'NONE',  ( 0.000000000000000000, 0.000000000000000000, 1.000000000000000000 ) ) ;
#272 = EDGE_CURVE ( 'NONE', #3, #152, #293, .T. ) ;
#273 = DIRECTION ( 'NONE',  ( -0.000000000000000000, -0.000000000000000000, -1.000000000000000000 ) ) ;
#274 = DIRECTION ( 'NONE',  ( 1.000000000000000000, 0.000000000000000000, 0.000000000000000000 ) ) ;
#275 = AXIS2_PLACEMENT_3D ( 'NONE', #178, #66, #104 ) ;
#276 = ADVANCED_FACE ( 'NONE', ( #61 ), #203, .T. ) ;
#277 = APPROVAL_DATE_TIME ( #278, #64 ) ;
#278 = DATE_AND_TIME ( #184, #79 ) ;
#279 = CC_DESIGN_SECURITY_CLASSIFICATION ( #186, ( #126 ) ) ;
#280 = APPLICATION_PROTOCOL_DEFINITION ( 'international standard', 'config_control_design', 1994, #164 ) ;
#281 = CARTESIAN_POINT ( 'NONE',  ( 4.500000000000000000, 5.510910596163088569E-16, 165.0000000000000000 ) ) ;
#282 = PERSON_AND_ORGANIZATION_ROLE ( 'design_supplier' ) ;
#283 = DIRECTION ( 'NONE',  ( 0.000000000000000000, 0.000000000000000000, 1.000000000000000000 ) ) ;
#284 = ORIENTED_EDGE ( 'NONE', *, *, #153, .F. ) ;
#285 = CARTESIAN_POINT ( 'NONE',  ( 0.000000000000000000, 0.000000000000000000, 0.000000000000000000 ) ) ;
#286 = ORIENTED_EDGE ( 'NONE', *, *, #13, .F. ) ;
#287 = VERTEX_POINT ( 'NONE', #68 ) ;
#288 = DIRECTION ( 'NONE',  ( 1.224646799147353207E-16, 1.000000000000000000, -0.000000000000000000 ) ) ;
#289 = CIRCLE ( 'NONE', #7, 4.500000000000000000 ) ;
#290 = DIRECTION ( 'NONE',  ( 0.000000000000000000, 0.000000000000000000, 1.000000000000000000 ) ) ;
#291 = CARTESIAN_POINT ( 'NONE',  ( 0.000000000000000000, 0.000000000000000000, 5.000000000000000000 ) ) ;
#292 = ADVANCED_FACE ( 'NONE', ( #155, #177 ), #296, .T. ) ;
#293 = LINE ( 'NONE', #105, #239 ) ;
#294 = DIRECTION ( 'NONE',  ( 0.000000000000000000, 0.000000000000000000, 1.000000000000000000 ) ) ;
#295 = AXIS2_PLACEMENT_3D ( 'NONE', #235, #146, #27 ) ;
#296 = PLANE ( 'NONE',  #145 ) ;
#297 = DATE_TIME_ROLE ( 'classification_date' ) ;
#298 = COORDINATED_UNIVERSAL_TIME_OFFSET ( 1, 0, .AHEAD. ) ;
#299 = CALENDAR_DATE ( 2022, 7, 7 ) ;
#300 = DIRECTION ( 'NONE',  ( -1.000000000000000000, 1.224646799147353454E-16, 0.000000000000000000 ) ) ;
#301 = PRODUCT ( '7ee0', '7ee0', '', ( #16 ) ) ;
#302 = CARTESIAN_POINT ( 'NONE',  ( 0.000000000000000000, 0.000000000000000000, 165.0000000000000000 ) ) ;
#303 = EDGE_LOOP ( 'NONE', ( #154, #28, #169, #30 ) ) ;
#304 = CIRCLE ( 'NONE', #172, 4.500000000000000000 ) ;
#305 = EDGE_LOOP ( 'NONE', ( #243, #284 ) ) ;
#306 = EDGE_CURVE ( 'NONE', #3, #168, #20, .T. ) ;
#307 = CIRCLE ( 'NONE', #270, 4.699999999999999289 ) ;
ENDSEC;
END-ISO-10303-21;
