ISO-10303-21;
HEADER;
FILE_DESCRIPTION (( 'STEP AP203' ),
    '1' );
FILE_NAME ('04ab.STEP',
    '2022-07-07T12:43:59',
    ( '' ),
    ( '' ),
    'SwSTEP 2.0',
    'SolidWorks 2019',
    '' );
FILE_SCHEMA (( 'CONFIG_CONTROL_DESIGN' ));
ENDSEC;

DATA;
#1 = ADVANCED_FACE ( 'NONE', ( #159, #114 ), #300, .T. ) ;
#2 = FACE_OUTER_BOUND ( 'NONE', #291, .T. ) ;
#3 = APPROVAL_ROLE ( '' ) ;
#4 = EDGE_CURVE ( 'NONE', #100, #60, #18, .T. ) ;
#5 = DIRECTION ( 'NONE',  ( 1.000000000000000000, 0.000000000000000000, 0.000000000000000000 ) ) ;
#6 = PERSON_AND_ORGANIZATION ( #57, #242 ) ;
#7 = ORIENTED_EDGE ( 'NONE', *, *, #294, .F. ) ;
#8 = CALENDAR_DATE ( 2022, 7, 7 ) ;
#9 = VERTEX_POINT ( 'NONE', #302 ) ;
#10 = CARTESIAN_POINT ( 'NONE',  ( 0.000000000000000000, 0.000000000000000000, 0.000000000000000000 ) ) ;
#11 = CC_DESIGN_APPROVAL ( #125, ( #176 ) ) ;
#12 = EDGE_LOOP ( 'NONE', ( #31, #7 ) ) ;
#13 = ADVANCED_FACE ( 'NONE', ( #252 ), #271, .T. ) ;
#14 = DESIGN_CONTEXT ( 'detailed design', #226, 'design' ) ;
#15 = VECTOR ( 'NONE', #47, 1000.000000000000000 ) ;
#16 = VERTEX_POINT ( 'NONE', #223 ) ;
#17 = PERSON_AND_ORGANIZATION_ROLE ( 'design_owner' ) ;
#18 = LINE ( 'NONE', #111, #265 ) ;
#19 = AXIS2_PLACEMENT_3D ( 'NONE', #73, #52, #28 ) ;
#20 = PERSON_AND_ORGANIZATION_ROLE ( 'creator' ) ;
#21 = EDGE_CURVE ( 'NONE', #9, #65, #182, .T. ) ;
#22 = FACE_OUTER_BOUND ( 'NONE', #270, .T. ) ;
#23 = CYLINDRICAL_SURFACE ( 'NONE', #253, 5.000000000000000000 ) ;
#24 = CC_DESIGN_PERSON_AND_ORGANIZATION_ASSIGNMENT ( #147, #20, ( #133 ) ) ;
#25 = DIRECTION ( 'NONE',  ( 1.000000000000000000, 0.000000000000000000, 0.000000000000000000 ) ) ;
#26 = DIRECTION ( 'NONE',  ( -1.000000000000000000, 0.000000000000000000, 0.000000000000000000 ) ) ;
#27 = CALENDAR_DATE ( 2022, 7, 7 ) ;
#28 = DIRECTION ( 'NONE',  ( 1.000000000000000000, 0.000000000000000000, 0.000000000000000000 ) ) ;
#29 = PERSON_AND_ORGANIZATION ( #57, #242 ) ;
#30 = CIRCLE ( 'NONE', #45, 2.750000000000000000 ) ;
#31 = ORIENTED_EDGE ( 'NONE', *, *, #105, .F. ) ;
#32 = CC_DESIGN_PERSON_AND_ORGANIZATION_ASSIGNMENT ( #136, #209, ( #33 ) ) ;
#33 = SECURITY_CLASSIFICATION ( '', '', #138 ) ;
#34 = EDGE_LOOP ( 'NONE', ( #134, #163 ) ) ;
#35 = EDGE_CURVE ( 'NONE', #199, #9, #260, .T. ) ;
#36 = ORIENTED_EDGE ( 'NONE', *, *, #21, .T. ) ;
#37 = PLANE ( 'NONE',  #298 ) ;
#38 = DIRECTION ( 'NONE',  ( 1.000000000000000000, 0.000000000000000000, -0.000000000000000000 ) ) ;
#39 = CC_DESIGN_SECURITY_CLASSIFICATION ( #33, ( #133 ) ) ;
#40 = DIRECTION ( 'NONE',  ( 0.000000000000000000, 0.000000000000000000, 1.000000000000000000 ) ) ;
#41 = DATE_AND_TIME ( #8, #267 ) ;
#42 = ORIENTED_EDGE ( 'NONE', *, *, #63, .T. ) ;
#43 = DIRECTION ( 'NONE',  ( 0.000000000000000000, 0.000000000000000000, 1.000000000000000000 ) ) ;
#44 = DIRECTION ( 'NONE',  ( -0.000000000000000000, -0.000000000000000000, -1.000000000000000000 ) ) ;
#45 = AXIS2_PLACEMENT_3D ( 'NONE', #144, #213, #231 ) ;
#46 = MECHANICAL_CONTEXT ( 'NONE', #178, 'mechanical' ) ;
#47 = DIRECTION ( 'NONE',  ( -0.000000000000000000, -0.000000000000000000, -1.000000000000000000 ) ) ;
#48 = AXIS2_PLACEMENT_3D ( 'NONE', #157, #68, #89 ) ;
#49 = DIRECTION ( 'NONE',  ( 1.000000000000000000, 0.000000000000000000, 0.000000000000000000 ) ) ;
#50 = ADVANCED_FACE ( 'NONE', ( #272 ), #37, .F. ) ;
#51 = AXIS2_PLACEMENT_3D ( 'NONE', #94, #165, #122 ) ;
#52 = DIRECTION ( 'NONE',  ( 0.000000000000000000, 0.000000000000000000, 1.000000000000000000 ) ) ;
#53 = ADVANCED_FACE ( 'NONE', ( #225 ), #137, .T. ) ;
#54 = APPROVAL_ROLE ( '' ) ;
#55 = EDGE_CURVE ( 'NONE', #9, #199, #112, .T. ) ;
#56 = ORIENTED_EDGE ( 'NONE', *, *, #4, .F. ) ;
#57 = PERSON ( 'NEURÈENÝ', 'NEURÈENÝ', 'NEURÈENÝ', ('NEURÈENÝ'), ('NEURÈENÝ'), ('NEURÈENÝ') ) ;
#58 = EDGE_CURVE ( 'NONE', #244, #100, #281, .T. ) ;
#59 = CC_DESIGN_APPROVAL ( #101, ( #133 ) ) ;
#60 = VERTEX_POINT ( 'NONE', #177 ) ;
#61 = ORIENTED_EDGE ( 'NONE', *, *, #63, .F. ) ;
#62 = EDGE_LOOP ( 'NONE', ( #288, #220 ) ) ;
#63 = EDGE_CURVE ( 'NONE', #199, #275, #207, .T. ) ;
#64 = ORIENTED_EDGE ( 'NONE', *, *, #250, .F. ) ;
#65 = VERTEX_POINT ( 'NONE', #120 ) ;
#66 = CIRCLE ( 'NONE', #106, 0.2000000000000000944 ) ;
#67 = PERSON_AND_ORGANIZATION ( #57, #242 ) ;
#68 = DIRECTION ( 'NONE',  ( 0.000000000000000000, 0.000000000000000000, 1.000000000000000000 ) ) ;
#69 = DIRECTION ( 'NONE',  ( 1.000000000000000000, 0.000000000000000000, 0.000000000000000000 ) ) ;
#70 = CARTESIAN_POINT ( 'NONE',  ( -2.750000000000000000, 0.000000000000000000, 128.0000000000000000 ) ) ;
#71 = DIRECTION ( 'NONE',  ( -1.000000000000000000, 0.000000000000000000, 0.000000000000000000 ) ) ;
#72 = DIRECTION ( 'NONE',  ( -1.000000000000000000, 0.000000000000000000, 0.000000000000000000 ) ) ;
#73 = CARTESIAN_POINT ( 'NONE',  ( 0.000000000000000000, 0.000000000000000000, 3.199999999999994404 ) ) ;
#74 = APPROVAL_PERSON_ORGANIZATION ( #67, #145, #191 ) ;
#75 = CARTESIAN_POINT ( 'NONE',  ( 0.000000000000000000, 0.000000000000000000, 3.000000000000000000 ) ) ;
#76 = SHAPE_DEFINITION_REPRESENTATION ( #153, #208 ) ;
#77 = VERTEX_POINT ( 'NONE', #307 ) ;
#78 = PERSON_AND_ORGANIZATION_ROLE ( 'creator' ) ;
#79 = CC_DESIGN_DATE_AND_TIME_ASSIGNMENT ( #41, #115, ( #176 ) ) ;
#80 = ORIENTED_EDGE ( 'NONE', *, *, #198, .T. ) ;
#81 = AXIS2_PLACEMENT_3D ( 'NONE', #304, #215, #26 ) ;
#82 = EDGE_CURVE ( 'NONE', #275, #131, #66, .T. ) ;
#83 = ORIENTED_EDGE ( 'NONE', *, *, #21, .F. ) ;
#84 = DIRECTION ( 'NONE',  ( 1.000000000000000000, 0.000000000000000000, 0.000000000000000000 ) ) ;
#85 = DIRECTION ( 'NONE',  ( 0.000000000000000000, 0.000000000000000000, 1.000000000000000000 ) ) ;
#86 = PRODUCT ( '04ab', '04ab', '', ( #46 ) ) ;
#87 = VECTOR ( 'NONE', #255, 1000.000000000000000 ) ;
#88 = EDGE_LOOP ( 'NONE', ( #184, #297, #116, #249 ) ) ;
#89 = DIRECTION ( 'NONE',  ( 1.000000000000000000, 0.000000000000000000, -0.000000000000000000 ) ) ;
#90 = APPROVAL_PERSON_ORGANIZATION ( #29, #101, #54 ) ;
#91 = ORIENTED_EDGE ( 'NONE', *, *, #58, .F. ) ;
#92 = PERSON_AND_ORGANIZATION_ROLE ( 'design_supplier' ) ;
#93 = CARTESIAN_POINT ( 'NONE',  ( -2.750000000000000000, 0.000000000000000000, 3.199999999999994404 ) ) ;
#94 = CARTESIAN_POINT ( 'NONE',  ( 0.000000000000000000, 0.000000000000000000, 3.000000000000000000 ) ) ;
#95 = DIRECTION ( 'NONE',  ( 0.000000000000000000, 0.000000000000000000, 1.000000000000000000 ) ) ;
#96 = DIRECTION ( 'NONE',  ( 0.000000000000000000, -1.000000000000000000, 0.000000000000000000 ) ) ;
#97 = DATE_AND_TIME ( #289, #306 ) ;
#98 = DIRECTION ( 'NONE',  ( 1.000000000000000000, 0.000000000000000000, 0.000000000000000000 ) ) ;
#99 = APPROVAL_STATUS ( 'not_yet_approved' ) ;
#100 = VERTEX_POINT ( 'NONE', #233 ) ;
#101 = APPROVAL ( #232, 'NEURÈENÝ' ) ;
#102 = DATE_AND_TIME ( #164, #193 ) ;
#103 = CIRCLE ( 'NONE', #224, 2.949999999999999734 ) ;
#104 = ORIENTED_EDGE ( 'NONE', *, *, #148, .F. ) ;
#105 = EDGE_CURVE ( 'NONE', #60, #16, #276, .T. ) ;
#106 = AXIS2_PLACEMENT_3D ( 'NONE', #187, #146, #142 ) ;
#107 = PRODUCT_RELATED_PRODUCT_CATEGORY ( 'detail', '', ( #86 ) ) ;
#108 = DIRECTION ( 'NONE',  ( 0.000000000000000000, 0.000000000000000000, 1.000000000000000000 ) ) ;
#109 = APPROVAL_PERSON_ORGANIZATION ( #6, #125, #3 ) ;
#110 = ORIENTED_EDGE ( 'NONE', *, *, #246, .T. ) ;
#111 = CARTESIAN_POINT ( 'NONE',  ( -5.000000000000000000, 0.000000000000000000, 3.000000000000000000 ) ) ;
#112 = CIRCLE ( 'NONE', #154, 2.750000000000000000 ) ;
#113 = CC_DESIGN_PERSON_AND_ORGANIZATION_ASSIGNMENT ( #257, #92, ( #133 ) ) ;
#114 = FACE_OUTER_BOUND ( 'NONE', #195, .T. ) ;
#115 = DATE_TIME_ROLE ( 'creation_date' ) ;
#116 = ORIENTED_EDGE ( 'NONE', *, *, #250, .T. ) ;
#117 =( GEOMETRIC_REPRESENTATION_CONTEXT ( 3 ) GLOBAL_UNCERTAINTY_ASSIGNED_CONTEXT ( ( #295 ) ) GLOBAL_UNIT_ASSIGNED_CONTEXT ( ( #149, #171, #150 ) ) REPRESENTATION_CONTEXT ( 'NONE', 'WORKASPACE' ) );
#118 = DIRECTION ( 'NONE',  ( 1.000000000000000000, 0.000000000000000000, 0.000000000000000000 ) ) ;
#119 = CARTESIAN_POINT ( 'NONE',  ( 2.949999999999999734, 0.000000000000000000, 3.199999999999994404 ) ) ;
#120 = CARTESIAN_POINT ( 'NONE',  ( 2.750000000000000000, 3.367778697655221012E-16, 3.199999999999994404 ) ) ;
#121 = CIRCLE ( 'NONE', #217, 5.000000000000000000 ) ;
#122 = DIRECTION ( 'NONE',  ( 1.000000000000000000, 0.000000000000000000, 0.000000000000000000 ) ) ;
#123 = DATE_AND_TIME ( #303, #248 ) ;
#124 = DIRECTION ( 'NONE',  ( 0.000000000000000000, 0.000000000000000000, 1.000000000000000000 ) ) ;
#125 = APPROVAL ( #99, 'NEURÈENÝ' ) ;
#126 = DIRECTION ( 'NONE',  ( 1.000000000000000000, 0.000000000000000000, 0.000000000000000000 ) ) ;
#127 = APPLICATION_PROTOCOL_DEFINITION ( 'international standard', 'config_control_design', 1994, #178 ) ;
#128 = CIRCLE ( 'NONE', #51, 2.949999999999999734 ) ;
#129 = AXIS2_PLACEMENT_3D ( 'NONE', #299, #258, #158 ) ;
#130 = AXIS2_PLACEMENT_3D ( 'NONE', #285, #167, #72 ) ;
#131 = VERTEX_POINT ( 'NONE', #280 ) ;
#132 = AXIS2_PLACEMENT_3D ( 'NONE', #222, #108, #38 ) ;
#133 = PRODUCT_DEFINITION_FORMATION_WITH_SPECIFIED_SOURCE ( 'LIBOVOLNÝ', '', #86, .NOT_KNOWN. ) ;
#134 = ORIENTED_EDGE ( 'NONE', *, *, #35, .T. ) ;
#135 = DIRECTION ( 'NONE',  ( 0.000000000000000000, 0.000000000000000000, 1.000000000000000000 ) ) ;
#136 = PERSON_AND_ORGANIZATION ( #57, #242 ) ;
#137 = PLANE ( 'NONE',  #132 ) ;
#138 = SECURITY_CLASSIFICATION_LEVEL ( 'unclassified' ) ;
#139 = CARTESIAN_POINT ( 'NONE',  ( 0.000000000000000000, 0.000000000000000000, 3.199999999999994404 ) ) ;
#140 = AXIS2_PLACEMENT_3D ( 'NONE', #139, #95, #49 ) ;
#141 = COORDINATED_UNIVERSAL_TIME_OFFSET ( 1, 0, .AHEAD. ) ;
#142 = DIRECTION ( 'NONE',  ( -1.000000000000000000, 1.224646799147353207E-16, 0.000000000000000000 ) ) ;
#143 = CARTESIAN_POINT ( 'NONE',  ( 5.000000000000000000, 6.123233995736766282E-16, 3.000000000000000000 ) ) ;
#144 = CARTESIAN_POINT ( 'NONE',  ( 0.000000000000000000, 0.000000000000000000, 3.199999999999994404 ) ) ;
#145 = APPROVAL ( #214, 'NEURÈENÝ' ) ;
#146 = DIRECTION ( 'NONE',  ( 1.224646799147353207E-16, 1.000000000000000000, -0.000000000000000000 ) ) ;
#147 = PERSON_AND_ORGANIZATION ( #57, #242 ) ;
#148 = EDGE_CURVE ( 'NONE', #244, #16, #236, .T. ) ;
#149 =( LENGTH_UNIT ( ) NAMED_UNIT ( * ) SI_UNIT ( .MILLI., .METRE. ) );
#150 =( NAMED_UNIT ( * ) SI_UNIT ( $, .STERADIAN. ) SOLID_ANGLE_UNIT ( ) );
#151 = ORIENTED_EDGE ( 'NONE', *, *, #294, .T. ) ;
#152 = CIRCLE ( 'NONE', #188, 0.2000000000000000944 ) ;
#153 = PRODUCT_DEFINITION_SHAPE ( 'NONE', 'NONE',  #176 ) ;
#154 = AXIS2_PLACEMENT_3D ( 'NONE', #296, #40, #84 ) ;
#155 = AXIS2_PLACEMENT_3D ( 'NONE', #239, #124, #5 ) ;
#156 = ADVANCED_FACE ( 'NONE', ( #234 ), #279, .T. ) ;
#157 = CARTESIAN_POINT ( 'NONE',  ( 0.000000000000000000, 0.000000000000000000, 3.000000000000000000 ) ) ;
#158 = DIRECTION ( 'NONE',  ( -1.000000000000000000, 0.000000000000000000, 0.000000000000000000 ) ) ;
#159 = FACE_BOUND ( 'NONE', #62, .T. ) ;
#160 = CARTESIAN_POINT ( 'NONE',  ( 2.750000000000000000, 3.367778697655221012E-16, 128.0000000000000000 ) ) ;
#161 = CLOSED_SHELL ( 'NONE', ( #202, #13, #174, #156, #1, #50, #172, #53, #256 ) ) ;
#162 = PERSON_AND_ORGANIZATION ( #57, #242 ) ;
#163 = ORIENTED_EDGE ( 'NONE', *, *, #55, .T. ) ;
#164 = CALENDAR_DATE ( 2022, 7, 7 ) ;
#165 = DIRECTION ( 'NONE',  ( -0.000000000000000000, -0.000000000000000000, -1.000000000000000000 ) ) ;
#166 = DIRECTION ( 'NONE',  ( -0.000000000000000000, -0.000000000000000000, -1.000000000000000000 ) ) ;
#167 = DIRECTION ( 'NONE',  ( -0.000000000000000000, -0.000000000000000000, -1.000000000000000000 ) ) ;
#168 = TOROIDAL_SURFACE ( 'NONE', #19, 2.949999999999999734, 0.2000000000000000111 ) ;
#169 = COORDINATED_UNIVERSAL_TIME_OFFSET ( 1, 0, .AHEAD. ) ;
#170 = FACE_OUTER_BOUND ( 'NONE', #218, .T. ) ;
#171 =( NAMED_UNIT ( * ) PLANE_ANGLE_UNIT ( ) SI_UNIT ( $, .RADIAN. ) );
#172 = ADVANCED_FACE ( 'NONE', ( #22 ), #259, .T. ) ;
#173 = CC_DESIGN_APPROVAL ( #145, ( #33 ) ) ;
#174 = ADVANCED_FACE ( 'NONE', ( #2 ), #23, .T. ) ;
#175 = EDGE_LOOP ( 'NONE', ( #104, #247, #194, #203 ) ) ;
#176 = PRODUCT_DEFINITION ( 'NEZNÁMÝ', '', #133, #14 ) ;
#177 = CARTESIAN_POINT ( 'NONE',  ( -5.000000000000000000, 0.000000000000000000, 0.000000000000000000 ) ) ;
#178 = APPLICATION_CONTEXT ( 'configuration controlled 3d designs of mechanical parts and assemblies' ) ;
#179 = DIRECTION ( 'NONE',  ( 1.000000000000000000, 0.000000000000000000, -0.000000000000000000 ) ) ;
#180 = AXIS2_PLACEMENT_3D ( 'NONE', #192, #189, #98 ) ;
#181 = CARTESIAN_POINT ( 'NONE',  ( 0.000000000000000000, 0.000000000000000000, 128.0000000000000000 ) ) ;
#182 = LINE ( 'NONE', #160, #87 ) ;
#183 = CARTESIAN_POINT ( 'NONE',  ( 0.000000000000000000, 0.000000000000000000, 0.000000000000000000 ) ) ;
#184 = ORIENTED_EDGE ( 'NONE', *, *, #82, .F. ) ;
#185 = EDGE_CURVE ( 'NONE', #77, #131, #103, .T. ) ;
#186 = CARTESIAN_POINT ( 'NONE',  ( 0.000000000000000000, 0.000000000000000000, 0.000000000000000000 ) ) ;
#187 = CARTESIAN_POINT ( 'NONE',  ( -2.949999999999999734, 3.612708057484692097E-16, 3.199999999999994404 ) ) ;
#188 = AXIS2_PLACEMENT_3D ( 'NONE', #119, #96, #305 ) ;
#189 = DIRECTION ( 'NONE',  ( 0.000000000000000000, 0.000000000000000000, 1.000000000000000000 ) ) ;
#190 = FACE_OUTER_BOUND ( 'NONE', #88, .T. ) ;
#191 = APPROVAL_ROLE ( '' ) ;
#192 = CARTESIAN_POINT ( 'NONE',  ( 0.000000000000000000, 0.000000000000000000, 0.000000000000000000 ) ) ;
#193 = LOCAL_TIME ( 14, 43, 59.00000000000000000, #141 ) ;
#194 = ORIENTED_EDGE ( 'NONE', *, *, #4, .T. ) ;
#195 = EDGE_LOOP ( 'NONE', ( #268, #266 ) ) ;
#196 = ORIENTED_EDGE ( 'NONE', *, *, #55, .F. ) ;
#197 = AXIS2_PLACEMENT_3D ( 'NONE', #229, #135, #227 ) ;
#198 = EDGE_CURVE ( 'NONE', #275, #65, #237, .T. ) ;
#199 = VERTEX_POINT ( 'NONE', #70 ) ;
#200 = DIRECTION ( 'NONE',  ( 0.000000000000000000, 0.000000000000000000, 1.000000000000000000 ) ) ;
#201 = EDGE_LOOP ( 'NONE', ( #196, #36, #110, #61 ) ) ;
#202 = ADVANCED_FACE ( 'NONE', ( #170 ), #284, .F. ) ;
#203 = ORIENTED_EDGE ( 'NONE', *, *, #105, .T. ) ;
#204 = AXIS2_PLACEMENT_3D ( 'NONE', #263, #261, #25 ) ;
#205 = APPROVAL_DATE_TIME ( #97, #101 ) ;
#206 = CC_DESIGN_DATE_AND_TIME_ASSIGNMENT ( #277, #301, ( #33 ) ) ;
#207 = LINE ( 'NONE', #212, #15 ) ;
#208 = ADVANCED_BREP_SHAPE_REPRESENTATION ( '04ab', ( #238, #221 ), #117 ) ;
#209 = PERSON_AND_ORGANIZATION_ROLE ( 'classification_officer' ) ;
#210 = CC_DESIGN_PERSON_AND_ORGANIZATION_ASSIGNMENT ( #162, #78, ( #176 ) ) ;
#211 = CARTESIAN_POINT ( 'NONE',  ( 0.000000000000000000, 0.000000000000000000, 3.000000000000000000 ) ) ;
#212 = CARTESIAN_POINT ( 'NONE',  ( -2.750000000000000000, 0.000000000000000000, 128.0000000000000000 ) ) ;
#213 = DIRECTION ( 'NONE',  ( 0.000000000000000000, 0.000000000000000000, 1.000000000000000000 ) ) ;
#214 = APPROVAL_STATUS ( 'not_yet_approved' ) ;
#215 = DIRECTION ( 'NONE',  ( -0.000000000000000000, -0.000000000000000000, -1.000000000000000000 ) ) ;
#216 = EDGE_CURVE ( 'NONE', #131, #77, #128, .T. ) ;
#217 = AXIS2_PLACEMENT_3D ( 'NONE', #186, #240, #126 ) ;
#218 = EDGE_LOOP ( 'NONE', ( #243, #269, #290, #64 ) ) ;
#219 = PERSON_AND_ORGANIZATION ( #57, #242 ) ;
#220 = ORIENTED_EDGE ( 'NONE', *, *, #216, .T. ) ;
#221 = AXIS2_PLACEMENT_3D ( 'NONE', #183, #43, #69 ) ;
#222 = CARTESIAN_POINT ( 'NONE',  ( 0.000000000000000000, 0.000000000000000000, 128.0000000000000000 ) ) ;
#223 = CARTESIAN_POINT ( 'NONE',  ( 5.000000000000000000, 6.123233995736766282E-16, 0.000000000000000000 ) ) ;
#224 = AXIS2_PLACEMENT_3D ( 'NONE', #75, #166, #118 ) ;
#225 = FACE_OUTER_BOUND ( 'NONE', #34, .T. ) ;
#226 = APPLICATION_CONTEXT ( 'configuration controlled 3d designs of mechanical parts and assemblies' ) ;
#227 = DIRECTION ( 'NONE',  ( 1.000000000000000000, 0.000000000000000000, 0.000000000000000000 ) ) ;
#228 = COORDINATED_UNIVERSAL_TIME_OFFSET ( 1, 0, .AHEAD. ) ;
#229 = CARTESIAN_POINT ( 'NONE',  ( 0.000000000000000000, 0.000000000000000000, 3.000000000000000000 ) ) ;
#230 = COORDINATED_UNIVERSAL_TIME_OFFSET ( 1, 0, .AHEAD. ) ;
#231 = DIRECTION ( 'NONE',  ( 1.000000000000000000, 0.000000000000000000, 0.000000000000000000 ) ) ;
#232 = APPROVAL_STATUS ( 'not_yet_approved' ) ;
#233 = CARTESIAN_POINT ( 'NONE',  ( -5.000000000000000000, 0.000000000000000000, 3.000000000000000000 ) ) ;
#234 = FACE_OUTER_BOUND ( 'NONE', #175, .T. ) ;
#235 = CIRCLE ( 'NONE', #155, 5.000000000000000000 ) ;
#236 = LINE ( 'NONE', #282, #292 ) ;
#237 = CIRCLE ( 'NONE', #204, 2.750000000000000000 ) ;
#238 = MANIFOLD_SOLID_BREP ( 'Zaoblit1', #161 ) ;
#239 = CARTESIAN_POINT ( 'NONE',  ( 0.000000000000000000, 0.000000000000000000, 3.000000000000000000 ) ) ;
#240 = DIRECTION ( 'NONE',  ( 0.000000000000000000, 0.000000000000000000, 1.000000000000000000 ) ) ;
#241 = APPROVAL_DATE_TIME ( #102, #125 ) ;
#242 = ORGANIZATION ( 'NEURÈENÝ', 'NEURÈENÝ', '' ) ;
#243 = ORIENTED_EDGE ( 'NONE', *, *, #198, .F. ) ;
#244 = VERTEX_POINT ( 'NONE', #143 ) ;
#245 = AXIS2_PLACEMENT_3D ( 'NONE', #181, #85, #273 ) ;
#246 = EDGE_CURVE ( 'NONE', #65, #275, #30, .T. ) ;
#247 = ORIENTED_EDGE ( 'NONE', *, *, #283, .F. ) ;
#248 = LOCAL_TIME ( 14, 43, 59.00000000000000000, #169 ) ;
#249 = ORIENTED_EDGE ( 'NONE', *, *, #216, .F. ) ;
#250 = EDGE_CURVE ( 'NONE', #65, #77, #152, .T. ) ;
#251 = DIRECTION ( 'NONE',  ( -0.000000000000000000, -0.000000000000000000, -1.000000000000000000 ) ) ;
#252 = FACE_OUTER_BOUND ( 'NONE', #201, .T. ) ;
#253 = AXIS2_PLACEMENT_3D ( 'NONE', #211, #44, #71 ) ;
#254 = ORIENTED_EDGE ( 'NONE', *, *, #35, .F. ) ;
#255 = DIRECTION ( 'NONE',  ( -0.000000000000000000, -0.000000000000000000, -1.000000000000000000 ) ) ;
#256 = ADVANCED_FACE ( 'NONE', ( #190 ), #168, .F. ) ;
#257 = PERSON_AND_ORGANIZATION ( #57, #242 ) ;
#258 = DIRECTION ( 'NONE',  ( -0.000000000000000000, -0.000000000000000000, -1.000000000000000000 ) ) ;
#259 = CYLINDRICAL_SURFACE ( 'NONE', #81, 2.750000000000000000 ) ;
#260 = CIRCLE ( 'NONE', #245, 2.750000000000000000 ) ;
#261 = DIRECTION ( 'NONE',  ( 0.000000000000000000, 0.000000000000000000, 1.000000000000000000 ) ) ;
#262 = LOCAL_TIME ( 14, 43, 59.00000000000000000, #274 ) ;
#263 = CARTESIAN_POINT ( 'NONE',  ( 0.000000000000000000, 0.000000000000000000, 3.199999999999994404 ) ) ;
#264 = APPLICATION_PROTOCOL_DEFINITION ( 'international standard', 'config_control_design', 1994, #226 ) ;
#265 = VECTOR ( 'NONE', #251, 1000.000000000000000 ) ;
#266 = ORIENTED_EDGE ( 'NONE', *, *, #58, .T. ) ;
#267 = LOCAL_TIME ( 14, 43, 59.00000000000000000, #230 ) ;
#268 = ORIENTED_EDGE ( 'NONE', *, *, #283, .T. ) ;
#269 = ORIENTED_EDGE ( 'NONE', *, *, #82, .T. ) ;
#270 = EDGE_LOOP ( 'NONE', ( #83, #254, #42, #80 ) ) ;
#271 = CYLINDRICAL_SURFACE ( 'NONE', #129, 2.750000000000000000 ) ;
#272 = FACE_OUTER_BOUND ( 'NONE', #12, .T. ) ;
#273 = DIRECTION ( 'NONE',  ( 1.000000000000000000, 0.000000000000000000, 0.000000000000000000 ) ) ;
#274 = COORDINATED_UNIVERSAL_TIME_OFFSET ( 1, 0, .AHEAD. ) ;
#275 = VERTEX_POINT ( 'NONE', #93 ) ;
#276 = CIRCLE ( 'NONE', #180, 5.000000000000000000 ) ;
#277 = DATE_AND_TIME ( #27, #262 ) ;
#278 = DIRECTION ( 'NONE',  ( -0.000000000000000000, -0.000000000000000000, -1.000000000000000000 ) ) ;
#279 = CYLINDRICAL_SURFACE ( 'NONE', #130, 5.000000000000000000 ) ;
#280 = CARTESIAN_POINT ( 'NONE',  ( -2.949999999999999734, 3.612708057484692097E-16, 2.999999999999997335 ) ) ;
#281 = CIRCLE ( 'NONE', #197, 5.000000000000000000 ) ;
#282 = CARTESIAN_POINT ( 'NONE',  ( 5.000000000000000000, 6.123233995736766282E-16, 3.000000000000000000 ) ) ;
#283 = EDGE_CURVE ( 'NONE', #100, #244, #235, .T. ) ;
#284 = TOROIDAL_SURFACE ( 'NONE', #140, 2.949999999999999734, 0.2000000000000000111 ) ;
#285 = CARTESIAN_POINT ( 'NONE',  ( 0.000000000000000000, 0.000000000000000000, 3.000000000000000000 ) ) ;
#286 = CC_DESIGN_PERSON_AND_ORGANIZATION_ASSIGNMENT ( #219, #17, ( #86 ) ) ;
#287 = APPROVAL_DATE_TIME ( #123, #145 ) ;
#288 = ORIENTED_EDGE ( 'NONE', *, *, #185, .T. ) ;
#289 = CALENDAR_DATE ( 2022, 7, 7 ) ;
#290 = ORIENTED_EDGE ( 'NONE', *, *, #185, .F. ) ;
#291 = EDGE_LOOP ( 'NONE', ( #91, #293, #151, #56 ) ) ;
#292 = VECTOR ( 'NONE', #278, 1000.000000000000000 ) ;
#293 = ORIENTED_EDGE ( 'NONE', *, *, #148, .T. ) ;
#294 = EDGE_CURVE ( 'NONE', #16, #60, #121, .T. ) ;
#295 = UNCERTAINTY_MEASURE_WITH_UNIT (LENGTH_MEASURE( 1.000000000000000082E-05 ), #149, 'distance_accuracy_value', 'NONE');
#296 = CARTESIAN_POINT ( 'NONE',  ( 0.000000000000000000, 0.000000000000000000, 128.0000000000000000 ) ) ;
#297 = ORIENTED_EDGE ( 'NONE', *, *, #246, .F. ) ;
#298 = AXIS2_PLACEMENT_3D ( 'NONE', #10, #200, #179 ) ;
#299 = CARTESIAN_POINT ( 'NONE',  ( 0.000000000000000000, 0.000000000000000000, 128.0000000000000000 ) ) ;
#300 = PLANE ( 'NONE',  #48 ) ;
#301 = DATE_TIME_ROLE ( 'classification_date' ) ;
#302 = CARTESIAN_POINT ( 'NONE',  ( 2.750000000000000000, 3.367778697655221012E-16, 128.0000000000000000 ) ) ;
#303 = CALENDAR_DATE ( 2022, 7, 7 ) ;
#304 = CARTESIAN_POINT ( 'NONE',  ( 0.000000000000000000, 0.000000000000000000, 128.0000000000000000 ) ) ;
#305 = DIRECTION ( 'NONE',  ( 0.000000000000000000, 0.000000000000000000, -1.000000000000000000 ) ) ;
#306 = LOCAL_TIME ( 14, 43, 59.00000000000000000, #228 ) ;
#307 = CARTESIAN_POINT ( 'NONE',  ( 2.949999999999999734, 0.000000000000000000, 2.999999999999997335 ) ) ;
ENDSEC;
END-ISO-10303-21;
