ISO-10303-21;
HEADER;
FILE_DESCRIPTION (( 'STEP AP203' ),
    '1' );
FILE_NAME ('38b9.STEP',
    '2022-07-07T12:55:44',
    ( '' ),
    ( '' ),
    'SwSTEP 2.0',
    'SolidWorks 2019',
    '' );
FILE_SCHEMA (( 'CONFIG_CONTROL_DESIGN' ));
ENDSEC;

DATA;
#1 = CC_DESIGN_PERSON_AND_ORGANIZATION_ASSIGNMENT ( #160, #136, ( #276 ) ) ;
#2 = ORIENTED_EDGE ( 'NONE', *, *, #209, .F. ) ;
#3 = VERTEX_POINT ( 'NONE', #151 ) ;
#4 = AXIS2_PLACEMENT_3D ( 'NONE', #268, #9, #6 ) ;
#5 = VECTOR ( 'NONE', #198, 1000.000000000000000 ) ;
#6 = DIRECTION ( 'NONE',  ( 1.000000000000000000, 0.000000000000000000, 0.000000000000000000 ) ) ;
#7 = CARTESIAN_POINT ( 'NONE',  ( 0.000000000000000000, 0.000000000000000000, 2.000000000000000000 ) ) ;
#8 = DIRECTION ( 'NONE',  ( 0.000000000000000000, 0.000000000000000000, 1.000000000000000000 ) ) ;
#9 = DIRECTION ( 'NONE',  ( 0.000000000000000000, 0.000000000000000000, 1.000000000000000000 ) ) ;
#10 = APPROVAL_PERSON_ORGANIZATION ( #140, #288, #303 ) ;
#11 = DIRECTION ( 'NONE',  ( 0.000000000000000000, 0.000000000000000000, 1.000000000000000000 ) ) ;
#12 = FACE_OUTER_BOUND ( 'NONE', #285, .T. ) ;
#13 = CARTESIAN_POINT ( 'NONE',  ( 0.000000000000000000, 0.000000000000000000, 2.199999999999979750 ) ) ;
#14 = DIRECTION ( 'NONE',  ( 1.000000000000000000, 0.000000000000000000, 0.000000000000000000 ) ) ;
#15 = FACE_OUTER_BOUND ( 'NONE', #266, .T. ) ;
#16 = CARTESIAN_POINT ( 'NONE',  ( -1.250000000000000000, 0.000000000000000000, 317.0000000000000000 ) ) ;
#17 = AXIS2_PLACEMENT_3D ( 'NONE', #82, #220, #290 ) ;
#18 = DIRECTION ( 'NONE',  ( 1.000000000000000000, 0.000000000000000000, -0.000000000000000000 ) ) ;
#19 = ADVANCED_BREP_SHAPE_REPRESENTATION ( '38b9', ( #138, #45 ), #38 ) ;
#20 = CALENDAR_DATE ( 2022, 7, 7 ) ;
#21 = PERSON_AND_ORGANIZATION_ROLE ( 'creator' ) ;
#22 = CALENDAR_DATE ( 2022, 7, 7 ) ;
#23 = CLOSED_SHELL ( 'NONE', ( #86, #139, #49, #52, #108, #30, #257, #289, #191 ) ) ;
#24 = CC_DESIGN_APPROVAL ( #224, ( #276 ) ) ;
#25 = CC_DESIGN_DATE_AND_TIME_ASSIGNMENT ( #304, #302, ( #276 ) ) ;
#26 = PERSON_AND_ORGANIZATION_ROLE ( 'design_supplier' ) ;
#27 = AXIS2_PLACEMENT_3D ( 'NONE', #106, #230, #34 ) ;
#28 = ORIENTED_EDGE ( 'NONE', *, *, #70, .T. ) ;
#29 = ORIENTED_EDGE ( 'NONE', *, *, #143, .T. ) ;
#30 = ADVANCED_FACE ( 'NONE', ( #12 ), #296, .F. ) ;
#31 = CARTESIAN_POINT ( 'NONE',  ( 0.000000000000000000, 0.000000000000000000, 2.000000000000000000 ) ) ;
#32 = CARTESIAN_POINT ( 'NONE',  ( -2.500000000000000000, 0.000000000000000000, 2.000000000000000000 ) ) ;
#33 = CARTESIAN_POINT ( 'NONE',  ( 1.250000000000000000, 1.530808498934191571E-16, 317.0000000000000000 ) ) ;
#34 = DIRECTION ( 'NONE',  ( 1.000000000000000000, 0.000000000000000000, 0.000000000000000000 ) ) ;
#35 = EDGE_CURVE ( 'NONE', #265, #167, #286, .T. ) ;
#36 = VERTEX_POINT ( 'NONE', #33 ) ;
#37 = CIRCLE ( 'NONE', #44, 1.450000000000000178 ) ;
#38 =( GEOMETRIC_REPRESENTATION_CONTEXT ( 3 ) GLOBAL_UNCERTAINTY_ASSIGNED_CONTEXT ( ( #102 ) ) GLOBAL_UNIT_ASSIGNED_CONTEXT ( ( #271, #181, #71 ) ) REPRESENTATION_CONTEXT ( 'NONE', 'WORKASPACE' ) );
#39 = DIRECTION ( 'NONE',  ( -0.000000000000000000, -0.000000000000000000, -1.000000000000000000 ) ) ;
#40 = PRODUCT_DEFINITION ( 'NEZNÁMÝ', '', #207, #58 ) ;
#41 = DIRECTION ( 'NONE',  ( 1.000000000000000000, 0.000000000000000000, 0.000000000000000000 ) ) ;
#42 = CARTESIAN_POINT ( 'NONE',  ( 0.000000000000000000, 0.000000000000000000, 2.000000000000000000 ) ) ;
#43 = CARTESIAN_POINT ( 'NONE',  ( 0.000000000000000000, 0.000000000000000000, 317.0000000000000000 ) ) ;
#44 = AXIS2_PLACEMENT_3D ( 'NONE', #249, #39, #14 ) ;
#45 = AXIS2_PLACEMENT_3D ( 'NONE', #232, #258, #233 ) ;
#46 = APPROVAL_DATE_TIME ( #254, #224 ) ;
#47 = SECURITY_CLASSIFICATION_LEVEL ( 'unclassified' ) ;
#48 = CALENDAR_DATE ( 2022, 7, 7 ) ;
#49 = ADVANCED_FACE ( 'NONE', ( #105 ), #192, .T. ) ;
#50 = CC_DESIGN_DATE_AND_TIME_ASSIGNMENT ( #92, #183, ( #40 ) ) ;
#51 = AXIS2_PLACEMENT_3D ( 'NONE', #180, #200, #149 ) ;
#52 = ADVANCED_FACE ( 'NONE', ( #130 ), #241, .T. ) ;
#53 = ORIENTED_EDGE ( 'NONE', *, *, #250, .T. ) ;
#54 = ORIENTED_EDGE ( 'NONE', *, *, #35, .F. ) ;
#55 = AXIS2_PLACEMENT_3D ( 'NONE', #7, #132, #231 ) ;
#56 = DIRECTION ( 'NONE',  ( 0.000000000000000000, 0.000000000000000000, 1.000000000000000000 ) ) ;
#57 = VERTEX_POINT ( 'NONE', #62 ) ;
#58 = DESIGN_CONTEXT ( 'detailed design', #270, 'design' ) ;
#59 = ORIENTED_EDGE ( 'NONE', *, *, #250, .F. ) ;
#60 = DIRECTION ( 'NONE',  ( -1.000000000000000000, 0.000000000000000000, 0.000000000000000000 ) ) ;
#61 = CC_DESIGN_PERSON_AND_ORGANIZATION_ASSIGNMENT ( #137, #234, ( #135 ) ) ;
#62 = CARTESIAN_POINT ( 'NONE',  ( -1.450000000000000178, 1.775737858763662409E-16, 1.999999999999989564 ) ) ;
#63 = AXIS2_PLACEMENT_3D ( 'NONE', #294, #176, #228 ) ;
#64 = DIRECTION ( 'NONE',  ( -0.000000000000000000, -0.000000000000000000, -1.000000000000000000 ) ) ;
#65 = ORIENTED_EDGE ( 'NONE', *, *, #169, .F. ) ;
#66 = DIRECTION ( 'NONE',  ( 1.000000000000000000, 0.000000000000000000, 0.000000000000000000 ) ) ;
#67 = PERSON_AND_ORGANIZATION_ROLE ( 'creator' ) ;
#68 = LOCAL_TIME ( 14, 55, 44.00000000000000000, #236 ) ;
#69 = PERSON_AND_ORGANIZATION ( #193, #203 ) ;
#70 = EDGE_CURVE ( 'NONE', #57, #80, #37, .T. ) ;
#71 =( NAMED_UNIT ( * ) SI_UNIT ( $, .STERADIAN. ) SOLID_ANGLE_UNIT ( ) );
#72 = PRODUCT_DEFINITION_SHAPE ( 'NONE', 'NONE',  #40 ) ;
#73 = APPROVAL_ROLE ( '' ) ;
#74 = AXIS2_PLACEMENT_3D ( 'NONE', #178, #56, #122 ) ;
#75 = AXIS2_PLACEMENT_3D ( 'NONE', #177, #125, #111 ) ;
#76 = VERTEX_POINT ( 'NONE', #201 ) ;
#77 = CIRCLE ( 'NONE', #127, 0.2000000000000000944 ) ;
#78 = ORIENTED_EDGE ( 'NONE', *, *, #150, .F. ) ;
#79 = AXIS2_PLACEMENT_3D ( 'NONE', #154, #112, #66 ) ;
#80 = VERTEX_POINT ( 'NONE', #298 ) ;
#81 = LINE ( 'NONE', #251, #5 ) ;
#82 = CARTESIAN_POINT ( 'NONE',  ( 0.000000000000000000, 0.000000000000000000, 317.0000000000000000 ) ) ;
#83 = DIRECTION ( 'NONE',  ( -0.000000000000000000, -0.000000000000000000, -1.000000000000000000 ) ) ;
#84 = ORIENTED_EDGE ( 'NONE', *, *, #70, .F. ) ;
#85 = DIRECTION ( 'NONE',  ( -0.000000000000000000, -0.000000000000000000, -1.000000000000000000 ) ) ;
#86 = ADVANCED_FACE ( 'NONE', ( #87 ), #146, .F. ) ;
#87 = FACE_OUTER_BOUND ( 'NONE', #141, .T. ) ;
#88 = DIRECTION ( 'NONE',  ( -0.000000000000000000, -0.000000000000000000, -1.000000000000000000 ) ) ;
#89 = CARTESIAN_POINT ( 'NONE',  ( 2.500000000000000000, 3.061616997868383141E-16, 0.000000000000000000 ) ) ;
#90 = APPROVAL_PERSON_ORGANIZATION ( #283, #224, #73 ) ;
#91 = EDGE_CURVE ( 'NONE', #36, #76, #165, .T. ) ;
#92 = DATE_AND_TIME ( #22, #155 ) ;
#93 = COORDINATED_UNIVERSAL_TIME_OFFSET ( 1, 0, .AHEAD. ) ;
#94 = VECTOR ( 'NONE', #158, 1000.000000000000000 ) ;
#95 = APPROVAL_STATUS ( 'not_yet_approved' ) ;
#96 = EDGE_CURVE ( 'NONE', #144, #128, #242, .T. ) ;
#97 = CIRCLE ( 'NONE', #75, 1.250000000000000000 ) ;
#98 = ORIENTED_EDGE ( 'NONE', *, *, #96, .F. ) ;
#99 = AXIS2_PLACEMENT_3D ( 'NONE', #133, #11, #301 ) ;
#100 = EDGE_LOOP ( 'NONE', ( #29, #145 ) ) ;
#101 = EDGE_LOOP ( 'NONE', ( #305, #28 ) ) ;
#102 = UNCERTAINTY_MEASURE_WITH_UNIT (LENGTH_MEASURE( 1.000000000000000082E-05 ), #271, 'distance_accuracy_value', 'NONE');
#103 = DIRECTION ( 'NONE',  ( 0.000000000000000000, 0.000000000000000000, 1.000000000000000000 ) ) ;
#104 = AXIS2_PLACEMENT_3D ( 'NONE', #13, #8, #41 ) ;
#105 = FACE_OUTER_BOUND ( 'NONE', #153, .T. ) ;
#106 = CARTESIAN_POINT ( 'NONE',  ( 0.000000000000000000, 0.000000000000000000, 2.199999999999979750 ) ) ;
#107 = DIRECTION ( 'NONE',  ( -1.000000000000000000, 0.000000000000000000, 0.000000000000000000 ) ) ;
#108 = ADVANCED_FACE ( 'NONE', ( #244, #124 ), #221, .T. ) ;
#109 = CARTESIAN_POINT ( 'NONE',  ( 1.250000000000000000, 1.530808498934191571E-16, 317.0000000000000000 ) ) ;
#110 = ORIENTED_EDGE ( 'NONE', *, *, #118, .T. ) ;
#111 = DIRECTION ( 'NONE',  ( 1.000000000000000000, 0.000000000000000000, 0.000000000000000000 ) ) ;
#112 = DIRECTION ( 'NONE',  ( 0.000000000000000000, 0.000000000000000000, 1.000000000000000000 ) ) ;
#113 = APPROVAL_STATUS ( 'not_yet_approved' ) ;
#114 = APPLICATION_PROTOCOL_DEFINITION ( 'international standard', 'config_control_design', 1994, #215 ) ;
#115 = PRODUCT_RELATED_PRODUCT_CATEGORY ( 'detail', '', ( #135 ) ) ;
#116 = APPROVAL_DATE_TIME ( #256, #288 ) ;
#117 = EDGE_LOOP ( 'NONE', ( #211, #240, #218, #269 ) ) ;
#118 = EDGE_CURVE ( 'NONE', #76, #3, #252, .T. ) ;
#119 = ORIENTED_EDGE ( 'NONE', *, *, #206, .F. ) ;
#120 = EDGE_CURVE ( 'NONE', #80, #57, #213, .T. ) ;
#121 = CC_DESIGN_APPROVAL ( #288, ( #40 ) ) ;
#122 = DIRECTION ( 'NONE',  ( 1.000000000000000000, 0.000000000000000000, 0.000000000000000000 ) ) ;
#123 = CC_DESIGN_PERSON_AND_ORGANIZATION_ASSIGNMENT ( #212, #26, ( #207 ) ) ;
#124 = FACE_OUTER_BOUND ( 'NONE', #100, .T. ) ;
#125 = DIRECTION ( 'NONE',  ( 0.000000000000000000, 0.000000000000000000, 1.000000000000000000 ) ) ;
#126 = CYLINDRICAL_SURFACE ( 'NONE', #287, 1.250000000000000000 ) ;
#127 = AXIS2_PLACEMENT_3D ( 'NONE', #295, #279, #273 ) ;
#128 = VERTEX_POINT ( 'NONE', #225 ) ;
#129 = CARTESIAN_POINT ( 'NONE',  ( 1.250000000000000000, 1.530808498934191571E-16, 2.199999999999979750 ) ) ;
#130 = FACE_OUTER_BOUND ( 'NONE', #117, .T. ) ;
#131 = DIRECTION ( 'NONE',  ( 0.000000000000000000, 0.000000000000000000, -1.000000000000000000 ) ) ;
#132 = DIRECTION ( 'NONE',  ( 0.000000000000000000, 0.000000000000000000, 1.000000000000000000 ) ) ;
#133 = CARTESIAN_POINT ( 'NONE',  ( 0.000000000000000000, 0.000000000000000000, 2.000000000000000000 ) ) ;
#134 = SHAPE_DEFINITION_REPRESENTATION ( #72, #19 ) ;
#135 = PRODUCT ( '38b9', '38b9', '', ( #255 ) ) ;
#136 = PERSON_AND_ORGANIZATION_ROLE ( 'classification_officer' ) ;
#137 = PERSON_AND_ORGANIZATION ( #193, #203 ) ;
#138 = MANIFOLD_SOLID_BREP ( 'Zaoblit1', #23 ) ;
#139 = ADVANCED_FACE ( 'NONE', ( #297 ), #278, .T. ) ;
#140 = PERSON_AND_ORGANIZATION ( #193, #203 ) ;
#141 = EDGE_LOOP ( 'NONE', ( #78, #291, #188, #119 ) ) ;
#142 = CIRCLE ( 'NONE', #259, 0.2000000000000000944 ) ;
#143 = EDGE_CURVE ( 'NONE', #128, #144, #292, .T. ) ;
#144 = VERTEX_POINT ( 'NONE', #245 ) ;
#145 = ORIENTED_EDGE ( 'NONE', *, *, #96, .T. ) ;
#146 = TOROIDAL_SURFACE ( 'NONE', #74, 1.450000000000000178, 0.2000000000000000111 ) ;
#147 = VECTOR ( 'NONE', #88, 1000.000000000000000 ) ;
#148 = DIRECTION ( 'NONE',  ( 1.000000000000000000, 0.000000000000000000, 0.000000000000000000 ) ) ;
#149 = DIRECTION ( 'NONE',  ( 1.000000000000000000, 0.000000000000000000, 0.000000000000000000 ) ) ;
#150 = EDGE_CURVE ( 'NONE', #3, #185, #161, .T. ) ;
#151 = CARTESIAN_POINT ( 'NONE',  ( -1.250000000000000000, 0.000000000000000000, 2.199999999999979750 ) ) ;
#152 = CARTESIAN_POINT ( 'NONE',  ( 1.450000000000000178, 0.000000000000000000, 2.199999999999979750 ) ) ;
#153 = EDGE_LOOP ( 'NONE', ( #98, #216, #199, #172 ) ) ;
#154 = CARTESIAN_POINT ( 'NONE',  ( 0.000000000000000000, 0.000000000000000000, 0.000000000000000000 ) ) ;
#155 = LOCAL_TIME ( 14, 55, 44.00000000000000000, #208 ) ;
#156 = ORIENTED_EDGE ( 'NONE', *, *, #206, .T. ) ;
#157 = DIRECTION ( 'NONE',  ( -1.000000000000000000, 0.000000000000000000, 0.000000000000000000 ) ) ;
#158 = DIRECTION ( 'NONE',  ( -0.000000000000000000, -0.000000000000000000, -1.000000000000000000 ) ) ;
#159 = LINE ( 'NONE', #32, #182 ) ;
#160 = PERSON_AND_ORGANIZATION ( #193, #203 ) ;
#161 = CIRCLE ( 'NONE', #27, 1.250000000000000000 ) ;
#162 = PERSON_AND_ORGANIZATION ( #193, #203 ) ;
#163 = COORDINATED_UNIVERSAL_TIME_OFFSET ( 1, 0, .AHEAD. ) ;
#164 = APPROVAL_STATUS ( 'not_yet_approved' ) ;
#165 = CIRCLE ( 'NONE', #17, 1.250000000000000000 ) ;
#166 = COORDINATED_UNIVERSAL_TIME_OFFSET ( 1, 0, .AHEAD. ) ;
#167 = VERTEX_POINT ( 'NONE', #89 ) ;
#168 = LOCAL_TIME ( 14, 55, 44.00000000000000000, #93 ) ;
#169 = EDGE_CURVE ( 'NONE', #167, #265, #171, .T. ) ;
#170 = DIRECTION ( 'NONE',  ( 0.000000000000000000, 0.000000000000000000, 1.000000000000000000 ) ) ;
#171 = CIRCLE ( 'NONE', #79, 2.500000000000000000 ) ;
#172 = ORIENTED_EDGE ( 'NONE', *, *, #190, .F. ) ;
#173 = DIRECTION ( 'NONE',  ( -0.000000000000000000, -0.000000000000000000, -1.000000000000000000 ) ) ;
#174 = CARTESIAN_POINT ( 'NONE',  ( -2.500000000000000000, 0.000000000000000000, 0.000000000000000000 ) ) ;
#175 = EDGE_CURVE ( 'NONE', #144, #167, #81, .T. ) ;
#176 = DIRECTION ( 'NONE',  ( -0.000000000000000000, -0.000000000000000000, -1.000000000000000000 ) ) ;
#177 = CARTESIAN_POINT ( 'NONE',  ( 0.000000000000000000, 0.000000000000000000, 317.0000000000000000 ) ) ;
#178 = CARTESIAN_POINT ( 'NONE',  ( 0.000000000000000000, 0.000000000000000000, 2.199999999999979750 ) ) ;
#179 = CARTESIAN_POINT ( 'NONE',  ( 0.000000000000000000, 0.000000000000000000, 317.0000000000000000 ) ) ;
#180 = CARTESIAN_POINT ( 'NONE',  ( 0.000000000000000000, 0.000000000000000000, 2.199999999999979750 ) ) ;
#181 =( NAMED_UNIT ( * ) PLANE_ANGLE_UNIT ( ) SI_UNIT ( $, .RADIAN. ) );
#182 = VECTOR ( 'NONE', #85, 1000.000000000000000 ) ;
#183 = DATE_TIME_ROLE ( 'creation_date' ) ;
#184 = AXIS2_PLACEMENT_3D ( 'NONE', #31, #170, #148 ) ;
#185 = VERTEX_POINT ( 'NONE', #129 ) ;
#186 = CIRCLE ( 'NONE', #51, 1.250000000000000000 ) ;
#187 = APPROVAL_DATE_TIME ( #205, #267 ) ;
#188 = ORIENTED_EDGE ( 'NONE', *, *, #120, .F. ) ;
#189 = CC_DESIGN_SECURITY_CLASSIFICATION ( #276, ( #207 ) ) ;
#190 = EDGE_CURVE ( 'NONE', #128, #265, #159, .T. ) ;
#191 = ADVANCED_FACE ( 'NONE', ( #204 ), #214, .F. ) ;
#192 = CYLINDRICAL_SURFACE ( 'NONE', #63, 2.500000000000000000 ) ;
#193 = PERSON ( 'NEURÈENÝ', 'NEURÈENÝ', 'NEURÈENÝ', ('NEURÈENÝ'), ('NEURÈENÝ'), ('NEURÈENÝ') ) ;
#194 = ORIENTED_EDGE ( 'NONE', *, *, #226, .F. ) ;
#195 = EDGE_CURVE ( 'NONE', #3, #57, #77, .T. ) ;
#196 = AXIS2_PLACEMENT_3D ( 'NONE', #43, #103, #18 ) ;
#197 = EDGE_LOOP ( 'NONE', ( #284, #194, #156, #84 ) ) ;
#198 = DIRECTION ( 'NONE',  ( -0.000000000000000000, -0.000000000000000000, -1.000000000000000000 ) ) ;
#199 = ORIENTED_EDGE ( 'NONE', *, *, #169, .T. ) ;
#200 = DIRECTION ( 'NONE',  ( 0.000000000000000000, 0.000000000000000000, 1.000000000000000000 ) ) ;
#201 = CARTESIAN_POINT ( 'NONE',  ( -1.250000000000000000, 0.000000000000000000, 317.0000000000000000 ) ) ;
#202 = FACE_OUTER_BOUND ( 'NONE', #272, .T. ) ;
#203 = ORGANIZATION ( 'NEURÈENÝ', 'NEURÈENÝ', '' ) ;
#204 = FACE_OUTER_BOUND ( 'NONE', #197, .T. ) ;
#205 = DATE_AND_TIME ( #20, #168 ) ;
#206 = EDGE_CURVE ( 'NONE', #185, #80, #142, .T. ) ;
#207 = PRODUCT_DEFINITION_FORMATION_WITH_SPECIFIED_SOURCE ( 'LIBOVOLNÝ', '', #135, .NOT_KNOWN. ) ;
#208 = COORDINATED_UNIVERSAL_TIME_OFFSET ( 1, 0, .AHEAD. ) ;
#209 = EDGE_CURVE ( 'NONE', #36, #185, #247, .T. ) ;
#210 = CALENDAR_DATE ( 2022, 7, 7 ) ;
#211 = ORIENTED_EDGE ( 'NONE', *, *, #175, .F. ) ;
#212 = PERSON_AND_ORGANIZATION ( #193, #203 ) ;
#213 = CIRCLE ( 'NONE', #239, 1.450000000000000178 ) ;
#214 = TOROIDAL_SURFACE ( 'NONE', #104, 1.450000000000000178, 0.2000000000000000111 ) ;
#215 = APPLICATION_CONTEXT ( 'configuration controlled 3d designs of mechanical parts and assemblies' ) ;
#216 = ORIENTED_EDGE ( 'NONE', *, *, #175, .T. ) ;
#217 = ORIENTED_EDGE ( 'NONE', *, *, #226, .T. ) ;
#218 = ORIENTED_EDGE ( 'NONE', *, *, #190, .T. ) ;
#219 = LOCAL_TIME ( 14, 55, 44.00000000000000000, #163 ) ;
#220 = DIRECTION ( 'NONE',  ( 0.000000000000000000, 0.000000000000000000, 1.000000000000000000 ) ) ;
#221 = PLANE ( 'NONE',  #55 ) ;
#222 = DIRECTION ( 'NONE',  ( -0.000000000000000000, -0.000000000000000000, -1.000000000000000000 ) ) ;
#223 = EDGE_LOOP ( 'NONE', ( #237, #277, #217, #307 ) ) ;
#224 = APPROVAL ( #113, 'NEURÈENÝ' ) ;
#225 = CARTESIAN_POINT ( 'NONE',  ( -2.500000000000000000, 0.000000000000000000, 2.000000000000000000 ) ) ;
#226 = EDGE_CURVE ( 'NONE', #185, #3, #186, .T. ) ;
#227 = CC_DESIGN_APPROVAL ( #267, ( #207 ) ) ;
#228 = DIRECTION ( 'NONE',  ( -1.000000000000000000, 0.000000000000000000, 0.000000000000000000 ) ) ;
#229 = DIRECTION ( 'NONE',  ( 1.000000000000000000, 0.000000000000000000, -0.000000000000000000 ) ) ;
#230 = DIRECTION ( 'NONE',  ( 0.000000000000000000, 0.000000000000000000, 1.000000000000000000 ) ) ;
#231 = DIRECTION ( 'NONE',  ( 1.000000000000000000, 0.000000000000000000, -0.000000000000000000 ) ) ;
#232 = CARTESIAN_POINT ( 'NONE',  ( 0.000000000000000000, 0.000000000000000000, 0.000000000000000000 ) ) ;
#233 = DIRECTION ( 'NONE',  ( 1.000000000000000000, 0.000000000000000000, 0.000000000000000000 ) ) ;
#234 = PERSON_AND_ORGANIZATION_ROLE ( 'design_owner' ) ;
#235 = CC_DESIGN_PERSON_AND_ORGANIZATION_ASSIGNMENT ( #69, #21, ( #40 ) ) ;
#236 = COORDINATED_UNIVERSAL_TIME_OFFSET ( 1, 0, .AHEAD. ) ;
#237 = ORIENTED_EDGE ( 'NONE', *, *, #91, .F. ) ;
#238 = ORIENTED_EDGE ( 'NONE', *, *, #91, .T. ) ;
#239 = AXIS2_PLACEMENT_3D ( 'NONE', #42, #83, #293 ) ;
#240 = ORIENTED_EDGE ( 'NONE', *, *, #143, .F. ) ;
#241 = CYLINDRICAL_SURFACE ( 'NONE', #299, 2.500000000000000000 ) ;
#242 = CIRCLE ( 'NONE', #184, 2.500000000000000000 ) ;
#243 = APPROVAL_PERSON_ORGANIZATION ( #162, #267, #282 ) ;
#244 = FACE_BOUND ( 'NONE', #101, .T. ) ;
#245 = CARTESIAN_POINT ( 'NONE',  ( 2.500000000000000000, 3.061616997868383141E-16, 2.000000000000000000 ) ) ;
#246 = DIRECTION ( 'NONE',  ( 0.000000000000000000, 0.000000000000000000, 1.000000000000000000 ) ) ;
#247 = LINE ( 'NONE', #109, #147 ) ;
#248 = CARTESIAN_POINT ( 'NONE',  ( 0.000000000000000000, 0.000000000000000000, 0.000000000000000000 ) ) ;
#249 = CARTESIAN_POINT ( 'NONE',  ( 0.000000000000000000, 0.000000000000000000, 2.000000000000000000 ) ) ;
#250 = EDGE_CURVE ( 'NONE', #76, #36, #97, .T. ) ;
#251 = CARTESIAN_POINT ( 'NONE',  ( 2.500000000000000000, 3.061616997868383141E-16, 2.000000000000000000 ) ) ;
#252 = LINE ( 'NONE', #16, #94 ) ;
#253 = DIRECTION ( 'NONE',  ( 0.000000000000000000, -1.000000000000000000, 0.000000000000000000 ) ) ;
#254 = DATE_AND_TIME ( #260, #263 ) ;
#255 = MECHANICAL_CONTEXT ( 'NONE', #215, 'mechanical' ) ;
#256 = DATE_AND_TIME ( #48, #68 ) ;
#257 = ADVANCED_FACE ( 'NONE', ( #15 ), #126, .T. ) ;
#258 = DIRECTION ( 'NONE',  ( 0.000000000000000000, 0.000000000000000000, 1.000000000000000000 ) ) ;
#259 = AXIS2_PLACEMENT_3D ( 'NONE', #152, #253, #131 ) ;
#260 = CALENDAR_DATE ( 2022, 7, 7 ) ;
#261 = AXIS2_PLACEMENT_3D ( 'NONE', #248, #246, #229 ) ;
#262 = ORIENTED_EDGE ( 'NONE', *, *, #150, .T. ) ;
#263 = LOCAL_TIME ( 14, 55, 44.00000000000000000, #166 ) ;
#264 = CC_DESIGN_PERSON_AND_ORGANIZATION_ASSIGNMENT ( #280, #67, ( #207 ) ) ;
#265 = VERTEX_POINT ( 'NONE', #174 ) ;
#266 = EDGE_LOOP ( 'NONE', ( #2, #59, #110, #262 ) ) ;
#267 = APPROVAL ( #95, 'NEURÈENÝ' ) ;
#268 = CARTESIAN_POINT ( 'NONE',  ( 0.000000000000000000, 0.000000000000000000, 0.000000000000000000 ) ) ;
#269 = ORIENTED_EDGE ( 'NONE', *, *, #35, .T. ) ;
#270 = APPLICATION_CONTEXT ( 'configuration controlled 3d designs of mechanical parts and assemblies' ) ;
#271 =( LENGTH_UNIT ( ) NAMED_UNIT ( * ) SI_UNIT ( .MILLI., .METRE. ) );
#272 = EDGE_LOOP ( 'NONE', ( #53, #238 ) ) ;
#273 = DIRECTION ( 'NONE',  ( -1.000000000000000000, 1.224646799147353207E-16, 0.000000000000000000 ) ) ;
#274 = CARTESIAN_POINT ( 'NONE',  ( 0.000000000000000000, 0.000000000000000000, 2.000000000000000000 ) ) ;
#275 = CARTESIAN_POINT ( 'NONE',  ( 0.000000000000000000, 0.000000000000000000, 317.0000000000000000 ) ) ;
#276 = SECURITY_CLASSIFICATION ( '', '', #47 ) ;
#277 = ORIENTED_EDGE ( 'NONE', *, *, #209, .T. ) ;
#278 = CYLINDRICAL_SURFACE ( 'NONE', #281, 1.250000000000000000 ) ;
#279 = DIRECTION ( 'NONE',  ( 1.224646799147353207E-16, 1.000000000000000000, -0.000000000000000000 ) ) ;
#280 = PERSON_AND_ORGANIZATION ( #193, #203 ) ;
#281 = AXIS2_PLACEMENT_3D ( 'NONE', #275, #222, #60 ) ;
#282 = APPROVAL_ROLE ( '' ) ;
#283 = PERSON_AND_ORGANIZATION ( #193, #203 ) ;
#284 = ORIENTED_EDGE ( 'NONE', *, *, #195, .F. ) ;
#285 = EDGE_LOOP ( 'NONE', ( #54, #65 ) ) ;
#286 = CIRCLE ( 'NONE', #4, 2.500000000000000000 ) ;
#287 = AXIS2_PLACEMENT_3D ( 'NONE', #179, #64, #157 ) ;
#288 = APPROVAL ( #164, 'NEURÈENÝ' ) ;
#289 = ADVANCED_FACE ( 'NONE', ( #202 ), #300, .T. ) ;
#290 = DIRECTION ( 'NONE',  ( 1.000000000000000000, 0.000000000000000000, 0.000000000000000000 ) ) ;
#291 = ORIENTED_EDGE ( 'NONE', *, *, #195, .T. ) ;
#292 = CIRCLE ( 'NONE', #99, 2.500000000000000000 ) ;
#293 = DIRECTION ( 'NONE',  ( 1.000000000000000000, 0.000000000000000000, 0.000000000000000000 ) ) ;
#294 = CARTESIAN_POINT ( 'NONE',  ( 0.000000000000000000, 0.000000000000000000, 2.000000000000000000 ) ) ;
#295 = CARTESIAN_POINT ( 'NONE',  ( -1.450000000000000178, 1.775737858763662163E-16, 2.199999999999979750 ) ) ;
#296 = PLANE ( 'NONE',  #261 ) ;
#297 = FACE_OUTER_BOUND ( 'NONE', #223, .T. ) ;
#298 = CARTESIAN_POINT ( 'NONE',  ( 1.450000000000000178, 0.000000000000000000, 1.999999999999989564 ) ) ;
#299 = AXIS2_PLACEMENT_3D ( 'NONE', #274, #173, #107 ) ;
#300 = PLANE ( 'NONE',  #196 ) ;
#301 = DIRECTION ( 'NONE',  ( 1.000000000000000000, 0.000000000000000000, 0.000000000000000000 ) ) ;
#302 = DATE_TIME_ROLE ( 'classification_date' ) ;
#303 = APPROVAL_ROLE ( '' ) ;
#304 = DATE_AND_TIME ( #210, #219 ) ;
#305 = ORIENTED_EDGE ( 'NONE', *, *, #120, .T. ) ;
#306 = APPLICATION_PROTOCOL_DEFINITION ( 'international standard', 'config_control_design', 1994, #270 ) ;
#307 = ORIENTED_EDGE ( 'NONE', *, *, #118, .F. ) ;
ENDSEC;
END-ISO-10303-21;
