ISO-10303-21;
HEADER;
FILE_DESCRIPTION (( 'STEP AP203' ),
    '1' );
FILE_NAME ('9703.STEP',
    '2022-07-07T12:40:35',
    ( '' ),
    ( '' ),
    'SwSTEP 2.0',
    'SolidWorks 2019',
    '' );
FILE_SCHEMA (( 'CONFIG_CONTROL_DESIGN' ));
ENDSEC;

DATA;
#1 = VERTEX_POINT ( 'NONE', #265 ) ;
#2 = VERTEX_POINT ( 'NONE', #5 ) ;
#3 = CC_DESIGN_APPROVAL ( #177, ( #31 ) ) ;
#4 = APPROVAL ( #186, 'NEURÈENÝ' ) ;
#5 = CARTESIAN_POINT ( 'NONE',  ( 6.000000000000000888, 7.347880794884120722E-16, 5.000000000000000000 ) ) ;
#6 = VERTEX_POINT ( 'NONE', #7 ) ;
#7 = CARTESIAN_POINT ( 'NONE',  ( 3.299999999999999822, 0.000000000000000000, 5.000000000000005329 ) ) ;
#8 = ORIENTED_EDGE ( 'NONE', *, *, #211, .F. ) ;
#9 = EDGE_LOOP ( 'NONE', ( #147, #290, #97, #242 ) ) ;
#10 = PRODUCT ( '9703', '9703', '', ( #241 ) ) ;
#11 = ADVANCED_FACE ( 'NONE', ( #47 ), #146, .F. ) ;
#12 = FACE_OUTER_BOUND ( 'NONE', #9, .T. ) ;
#13 = CIRCLE ( 'NONE', #51, 3.299999999999999822 ) ;
#14 = EDGE_CURVE ( 'NONE', #175, #6, #273, .T. ) ;
#15 = CARTESIAN_POINT ( 'NONE',  ( -3.100000000000000089, 0.000000000000000000, 5.200000000000009948 ) ) ;
#16 = EDGE_CURVE ( 'NONE', #45, #74, #35, .T. ) ;
#17 = MANIFOLD_SOLID_BREP ( 'Zaoblit1', #89 ) ;
#18 = FACE_BOUND ( 'NONE', #150, .T. ) ;
#19 = APPLICATION_CONTEXT ( 'configuration controlled 3d designs of mechanical parts and assemblies' ) ;
#20 = DIRECTION ( 'NONE',  ( 1.000000000000000000, 0.000000000000000000, 0.000000000000000000 ) ) ;
#21 = APPROVAL_PERSON_ORGANIZATION ( #46, #162, #214 ) ;
#22 = DIRECTION ( 'NONE',  ( 0.000000000000000000, 0.000000000000000000, 1.000000000000000000 ) ) ;
#23 = LINE ( 'NONE', #187, #137 ) ;
#24 =( NAMED_UNIT ( * ) SI_UNIT ( $, .STERADIAN. ) SOLID_ANGLE_UNIT ( ) );
#25 = DIRECTION ( 'NONE',  ( 1.000000000000000000, 0.000000000000000000, 0.000000000000000000 ) ) ;
#26 = CYLINDRICAL_SURFACE ( 'NONE', #229, 6.000000000000000888 ) ;
#27 = DIRECTION ( 'NONE',  ( 0.000000000000000000, 0.000000000000000000, -1.000000000000000000 ) ) ;
#28 = LOCAL_TIME ( 14, 40, 35.00000000000000000, #96 ) ;
#29 = CIRCLE ( 'NONE', #65, 0.2000000000000000944 ) ;
#30 = ORIENTED_EDGE ( 'NONE', *, *, #127, .T. ) ;
#31 = SECURITY_CLASSIFICATION ( '', '', #176 ) ;
#32 = EDGE_LOOP ( 'NONE', ( #102, #70 ) ) ;
#33 = DIRECTION ( 'NONE',  ( -1.000000000000000000, 1.224646799147353207E-16, 0.000000000000000000 ) ) ;
#34 = ORIENTED_EDGE ( 'NONE', *, *, #188, .F. ) ;
#35 = CIRCLE ( 'NONE', #155, 6.000000000000000888 ) ;
#36 = CARTESIAN_POINT ( 'NONE',  ( 0.000000000000000000, 0.000000000000000000, 5.200000000000009948 ) ) ;
#37 = DIRECTION ( 'NONE',  ( 1.000000000000000000, 0.000000000000000000, -0.000000000000000000 ) ) ;
#38 = DIRECTION ( 'NONE',  ( 1.000000000000000000, 0.000000000000000000, 0.000000000000000000 ) ) ;
#39 = DIRECTION ( 'NONE',  ( 0.000000000000000000, 0.000000000000000000, 1.000000000000000000 ) ) ;
#40 = DIRECTION ( 'NONE',  ( -0.000000000000000000, -0.000000000000000000, -1.000000000000000000 ) ) ;
#41 = CC_DESIGN_APPROVAL ( #4, ( #109 ) ) ;
#42 = DATE_AND_TIME ( #258, #274 ) ;
#43 = APPROVAL_ROLE ( '' ) ;
#44 = DIRECTION ( 'NONE',  ( 0.000000000000000000, 0.000000000000000000, 1.000000000000000000 ) ) ;
#45 = VERTEX_POINT ( 'NONE', #73 ) ;
#46 = PERSON_AND_ORGANIZATION ( #301, #99 ) ;
#47 = FACE_OUTER_BOUND ( 'NONE', #81, .T. ) ;
#48 = ADVANCED_FACE ( 'NONE', ( #124 ), #26, .T. ) ;
#49 = ORIENTED_EDGE ( 'NONE', *, *, #14, .T. ) ;
#50 = ORIENTED_EDGE ( 'NONE', *, *, #107, .T. ) ;
#51 = AXIS2_PLACEMENT_3D ( 'NONE', #277, #40, #59 ) ;
#52 = EDGE_LOOP ( 'NONE', ( #53, #34, #50, #78 ) ) ;
#53 = ORIENTED_EDGE ( 'NONE', *, *, #260, .F. ) ;
#54 = PERSON_AND_ORGANIZATION ( #301, #99 ) ;
#55 = VERTEX_POINT ( 'NONE', #171 ) ;
#56 = PERSON_AND_ORGANIZATION ( #301, #99 ) ;
#57 = CARTESIAN_POINT ( 'NONE',  ( -6.000000000000000888, 0.000000000000000000, 5.000000000000000000 ) ) ;
#58 = DESIGN_CONTEXT ( 'detailed design', #243, 'design' ) ;
#59 = DIRECTION ( 'NONE',  ( 1.000000000000000000, 0.000000000000000000, 0.000000000000000000 ) ) ;
#60 = AXIS2_PLACEMENT_3D ( 'NONE', #254, #138, #38 ) ;
#61 = FACE_OUTER_BOUND ( 'NONE', #251, .T. ) ;
#62 = ADVANCED_BREP_SHAPE_REPRESENTATION ( '9703', ( #17, #112 ), #163 ) ;
#63 = DIRECTION ( 'NONE',  ( -0.000000000000000000, -0.000000000000000000, -1.000000000000000000 ) ) ;
#64 = PERSON_AND_ORGANIZATION_ROLE ( 'creator' ) ;
#65 = AXIS2_PLACEMENT_3D ( 'NONE', #268, #249, #33 ) ;
#66 = CIRCLE ( 'NONE', #84, 3.100000000000000089 ) ;
#67 = DIRECTION ( 'NONE',  ( 1.000000000000000000, 0.000000000000000000, 0.000000000000000000 ) ) ;
#68 = ADVANCED_FACE ( 'NONE', ( #117 ), #266, .T. ) ;
#69 = ADVANCED_FACE ( 'NONE', ( #195 ), #240, .F. ) ;
#70 = ORIENTED_EDGE ( 'NONE', *, *, #238, .T. ) ;
#71 = LOCAL_TIME ( 14, 40, 35.00000000000000000, #76 ) ;
#72 = ORIENTED_EDGE ( 'NONE', *, *, #149, .F. ) ;
#73 = CARTESIAN_POINT ( 'NONE',  ( 6.000000000000000888, 7.347880794884120722E-16, 0.000000000000000000 ) ) ;
#74 = VERTEX_POINT ( 'NONE', #144 ) ;
#75 = DIRECTION ( 'NONE',  ( 0.000000000000000000, 0.000000000000000000, 1.000000000000000000 ) ) ;
#76 = COORDINATED_UNIVERSAL_TIME_OFFSET ( 1, 0, .AHEAD. ) ;
#77 = CC_DESIGN_DATE_AND_TIME_ASSIGNMENT ( #42, #237, ( #221 ) ) ;
#78 = ORIENTED_EDGE ( 'NONE', *, *, #120, .T. ) ;
#79 = PERSON_AND_ORGANIZATION ( #301, #99 ) ;
#80 = CC_DESIGN_PERSON_AND_ORGANIZATION_ASSIGNMENT ( #168, #302, ( #10 ) ) ;
#81 = EDGE_LOOP ( 'NONE', ( #170, #267 ) ) ;
#82 = ORIENTED_EDGE ( 'NONE', *, *, #238, .F. ) ;
#83 = VECTOR ( 'NONE', #257, 1000.000000000000000 ) ;
#84 = AXIS2_PLACEMENT_3D ( 'NONE', #207, #232, #298 ) ;
#85 = SHAPE_DEFINITION_REPRESENTATION ( #271, #62 ) ;
#86 = DIRECTION ( 'NONE',  ( 0.000000000000000000, 0.000000000000000000, 1.000000000000000000 ) ) ;
#87 = DIRECTION ( 'NONE',  ( -0.000000000000000000, -0.000000000000000000, -1.000000000000000000 ) ) ;
#88 = CARTESIAN_POINT ( 'NONE',  ( -3.299999999999999822, 4.041334437186265510E-16, 5.000000000000005329 ) ) ;
#89 = CLOSED_SHELL ( 'NONE', ( #157, #289, #48, #135, #212, #11, #68, #253, #69 ) ) ;
#90 = DIRECTION ( 'NONE',  ( 1.000000000000000000, 0.000000000000000000, -0.000000000000000000 ) ) ;
#91 = EDGE_CURVE ( 'NONE', #218, #248, #29, .T. ) ;
#92 = PERSON_AND_ORGANIZATION ( #301, #99 ) ;
#93 = CIRCLE ( 'NONE', #269, 6.000000000000000888 ) ;
#94 = CARTESIAN_POINT ( 'NONE',  ( 0.000000000000000000, 0.000000000000000000, 5.000000000000000000 ) ) ;
#95 = CARTESIAN_POINT ( 'NONE',  ( 3.299999999999999822, 0.000000000000000000, 5.200000000000009948 ) ) ;
#96 = COORDINATED_UNIVERSAL_TIME_OFFSET ( 1, 0, .AHEAD. ) ;
#97 = ORIENTED_EDGE ( 'NONE', *, *, #205, .T. ) ;
#98 = AXIS2_PLACEMENT_3D ( 'NONE', #287, #75, #173 ) ;
#99 = ORGANIZATION ( 'NEURÈENÝ', 'NEURÈENÝ', '' ) ;
#100 = ORIENTED_EDGE ( 'NONE', *, *, #288, .T. ) ;
#101 = DIRECTION ( 'NONE',  ( -1.000000000000000000, 0.000000000000000000, 0.000000000000000000 ) ) ;
#102 = ORIENTED_EDGE ( 'NONE', *, *, #188, .T. ) ;
#103 = DIRECTION ( 'NONE',  ( 0.000000000000000000, 0.000000000000000000, 1.000000000000000000 ) ) ;
#104 = ORIENTED_EDGE ( 'NONE', *, *, #127, .F. ) ;
#105 = CIRCLE ( 'NONE', #183, 3.299999999999999822 ) ;
#106 = COORDINATED_UNIVERSAL_TIME_OFFSET ( 1, 0, .AHEAD. ) ;
#107 = EDGE_CURVE ( 'NONE', #55, #218, #210, .T. ) ;
#108 = CALENDAR_DATE ( 2022, 7, 7 ) ;
#109 = PRODUCT_DEFINITION_FORMATION_WITH_SPECIFIED_SOURCE ( 'LIBOVOLNÝ', '', #10, .NOT_KNOWN. ) ;
#110 = AXIS2_PLACEMENT_3D ( 'NONE', #95, #244, #27 ) ;
#111 = CARTESIAN_POINT ( 'NONE',  ( 0.000000000000000000, 0.000000000000000000, 5.000000000000000000 ) ) ;
#112 = AXIS2_PLACEMENT_3D ( 'NONE', #262, #44, #67 ) ;
#113 = LINE ( 'NONE', #115, #201 ) ;
#114 = CARTESIAN_POINT ( 'NONE',  ( 3.100000000000000089, 3.796405077356794918E-16, 5.200000000000009948 ) ) ;
#115 = CARTESIAN_POINT ( 'NONE',  ( -6.000000000000000888, 0.000000000000000000, 5.000000000000000000 ) ) ;
#116 = CARTESIAN_POINT ( 'NONE',  ( 6.000000000000000888, 7.347880794884120722E-16, 5.000000000000000000 ) ) ;
#117 = FACE_OUTER_BOUND ( 'NONE', #52, .T. ) ;
#118 = APPROVAL_STATUS ( 'not_yet_approved' ) ;
#119 = DIRECTION ( 'NONE',  ( -0.000000000000000000, -0.000000000000000000, -1.000000000000000000 ) ) ;
#120 = EDGE_CURVE ( 'NONE', #218, #175, #169, .T. ) ;
#121 = CARTESIAN_POINT ( 'NONE',  ( 0.000000000000000000, 0.000000000000000000, 0.000000000000000000 ) ) ;
#122 = AXIS2_PLACEMENT_3D ( 'NONE', #233, #300, #90 ) ;
#123 = AXIS2_PLACEMENT_3D ( 'NONE', #142, #145, #140 ) ;
#124 = FACE_OUTER_BOUND ( 'NONE', #215, .T. ) ;
#125 = ORIENTED_EDGE ( 'NONE', *, *, #91, .F. ) ;
#126 = ORIENTED_EDGE ( 'NONE', *, *, #165, .T. ) ;
#127 = EDGE_CURVE ( 'NONE', #6, #248, #13, .T. ) ;
#128 = ORIENTED_EDGE ( 'NONE', *, *, #149, .T. ) ;
#129 = CALENDAR_DATE ( 2022, 7, 7 ) ;
#130 = CARTESIAN_POINT ( 'NONE',  ( 0.000000000000000000, 0.000000000000000000, 5.000000000000000000 ) ) ;
#131 = AXIS2_PLACEMENT_3D ( 'NONE', #130, #22, #20 ) ;
#132 = FACE_OUTER_BOUND ( 'NONE', #307, .T. ) ;
#133 = EDGE_CURVE ( 'NONE', #74, #45, #93, .T. ) ;
#134 = CARTESIAN_POINT ( 'NONE',  ( 0.000000000000000000, 0.000000000000000000, 165.0000000000000000 ) ) ;
#135 = ADVANCED_FACE ( 'NONE', ( #12 ), #279, .T. ) ;
#136 = DIRECTION ( 'NONE',  ( 1.000000000000000000, 0.000000000000000000, 0.000000000000000000 ) ) ;
#137 = VECTOR ( 'NONE', #305, 1000.000000000000000 ) ;
#138 = DIRECTION ( 'NONE',  ( 0.000000000000000000, 0.000000000000000000, 1.000000000000000000 ) ) ;
#139 = LOCAL_TIME ( 14, 40, 35.00000000000000000, #106 ) ;
#140 = DIRECTION ( 'NONE',  ( -1.000000000000000000, 0.000000000000000000, 0.000000000000000000 ) ) ;
#141 = CYLINDRICAL_SURFACE ( 'NONE', #123, 3.100000000000000089 ) ;
#142 = CARTESIAN_POINT ( 'NONE',  ( 0.000000000000000000, 0.000000000000000000, 165.0000000000000000 ) ) ;
#143 = FACE_OUTER_BOUND ( 'NONE', #172, .T. ) ;
#144 = CARTESIAN_POINT ( 'NONE',  ( -6.000000000000000888, 0.000000000000000000, 0.000000000000000000 ) ) ;
#145 = DIRECTION ( 'NONE',  ( -0.000000000000000000, -0.000000000000000000, -1.000000000000000000 ) ) ;
#146 = PLANE ( 'NONE',  #203 ) ;
#147 = ORIENTED_EDGE ( 'NONE', *, *, #259, .F. ) ;
#148 = AXIS2_PLACEMENT_3D ( 'NONE', #299, #158, #37 ) ;
#149 = EDGE_CURVE ( 'NONE', #2, #191, #167, .T. ) ;
#150 = EDGE_LOOP ( 'NONE', ( #30, #126 ) ) ;
#151 = ORIENTED_EDGE ( 'NONE', *, *, #91, .T. ) ;
#152 = ORIENTED_EDGE ( 'NONE', *, *, #205, .F. ) ;
#153 = COORDINATED_UNIVERSAL_TIME_OFFSET ( 1, 0, .AHEAD. ) ;
#154 = APPROVAL_DATE_TIME ( #199, #177 ) ;
#155 = AXIS2_PLACEMENT_3D ( 'NONE', #121, #194, #286 ) ;
#156 = AXIS2_PLACEMENT_3D ( 'NONE', #36, #86, #181 ) ;
#157 = ADVANCED_FACE ( 'NONE', ( #61 ), #174, .F. ) ;
#158 = DIRECTION ( 'NONE',  ( 0.000000000000000000, 0.000000000000000000, 1.000000000000000000 ) ) ;
#159 = DIRECTION ( 'NONE',  ( -1.000000000000000000, 0.000000000000000000, 0.000000000000000000 ) ) ;
#160 = FACE_OUTER_BOUND ( 'NONE', #32, .T. ) ;
#161 = CARTESIAN_POINT ( 'NONE',  ( 0.000000000000000000, 0.000000000000000000, 5.200000000000009948 ) ) ;
#162 = APPROVAL ( #118, 'NEURÈENÝ' ) ;
#163 =( GEOMETRIC_REPRESENTATION_CONTEXT ( 3 ) GLOBAL_UNCERTAINTY_ASSIGNED_CONTEXT ( ( #228 ) ) GLOBAL_UNIT_ASSIGNED_CONTEXT ( ( #281, #239, #24 ) ) REPRESENTATION_CONTEXT ( 'NONE', 'WORKASPACE' ) );
#164 = COORDINATED_UNIVERSAL_TIME_OFFSET ( 1, 0, .AHEAD. ) ;
#165 = EDGE_CURVE ( 'NONE', #248, #6, #105, .T. ) ;
#166 = DIRECTION ( 'NONE',  ( -1.000000000000000000, 0.000000000000000000, 0.000000000000000000 ) ) ;
#167 = CIRCLE ( 'NONE', #131, 6.000000000000000888 ) ;
#168 = PERSON_AND_ORGANIZATION ( #301, #99 ) ;
#169 = CIRCLE ( 'NONE', #197, 3.100000000000000089 ) ;
#170 = ORIENTED_EDGE ( 'NONE', *, *, #133, .F. ) ;
#171 = CARTESIAN_POINT ( 'NONE',  ( -3.100000000000000089, 0.000000000000000000, 165.0000000000000000 ) ) ;
#172 = EDGE_LOOP ( 'NONE', ( #82, #285, #219, #220 ) ) ;
#173 = DIRECTION ( 'NONE',  ( 1.000000000000000000, 0.000000000000000000, 0.000000000000000000 ) ) ;
#174 = TOROIDAL_SURFACE ( 'NONE', #60, 3.299999999999999822, 0.2000000000000000111 ) ;
#175 = VERTEX_POINT ( 'NONE', #114 ) ;
#176 = SECURITY_CLASSIFICATION_LEVEL ( 'unclassified' ) ;
#177 = APPROVAL ( #200, 'NEURÈENÝ' ) ;
#178 = CC_DESIGN_SECURITY_CLASSIFICATION ( #31, ( #109 ) ) ;
#179 = CC_DESIGN_PERSON_AND_ORGANIZATION_ASSIGNMENT ( #54, #226, ( #109 ) ) ;
#180 = CALENDAR_DATE ( 2022, 7, 7 ) ;
#181 = DIRECTION ( 'NONE',  ( 1.000000000000000000, 0.000000000000000000, 0.000000000000000000 ) ) ;
#182 = DIRECTION ( 'NONE',  ( -0.000000000000000000, -0.000000000000000000, -1.000000000000000000 ) ) ;
#183 = AXIS2_PLACEMENT_3D ( 'NONE', #111, #182, #206 ) ;
#184 = DIRECTION ( 'NONE',  ( 0.000000000000000000, 0.000000000000000000, 1.000000000000000000 ) ) ;
#185 = LINE ( 'NONE', #116, #83 ) ;
#186 = APPROVAL_STATUS ( 'not_yet_approved' ) ;
#187 = CARTESIAN_POINT ( 'NONE',  ( 3.100000000000000089, 3.796405077356794918E-16, 165.0000000000000000 ) ) ;
#188 = EDGE_CURVE ( 'NONE', #55, #1, #222, .T. ) ;
#189 = CARTESIAN_POINT ( 'NONE',  ( 0.000000000000000000, 0.000000000000000000, 5.000000000000000000 ) ) ;
#190 = DATE_AND_TIME ( #303, #28 ) ;
#191 = VERTEX_POINT ( 'NONE', #57 ) ;
#192 = AXIS2_PLACEMENT_3D ( 'NONE', #284, #119, #166 ) ;
#193 = CIRCLE ( 'NONE', #294, 6.000000000000000888 ) ;
#194 = DIRECTION ( 'NONE',  ( 0.000000000000000000, 0.000000000000000000, 1.000000000000000000 ) ) ;
#195 = FACE_OUTER_BOUND ( 'NONE', #292, .T. ) ;
#196 = ORIENTED_EDGE ( 'NONE', *, *, #14, .F. ) ;
#197 = AXIS2_PLACEMENT_3D ( 'NONE', #161, #184, #136 ) ;
#198 = ORIENTED_EDGE ( 'NONE', *, *, #120, .F. ) ;
#199 = DATE_AND_TIME ( #129, #252 ) ;
#200 = APPROVAL_STATUS ( 'not_yet_approved' ) ;
#201 = VECTOR ( 'NONE', #87, 1000.000000000000000 ) ;
#202 = APPROVAL_DATE_TIME ( #250, #4 ) ;
#203 = AXIS2_PLACEMENT_3D ( 'NONE', #216, #103, #213 ) ;
#204 = AXIS2_PLACEMENT_3D ( 'NONE', #134, #208, #231 ) ;
#205 = EDGE_CURVE ( 'NONE', #191, #74, #113, .T. ) ;
#206 = DIRECTION ( 'NONE',  ( 1.000000000000000000, 0.000000000000000000, 0.000000000000000000 ) ) ;
#207 = CARTESIAN_POINT ( 'NONE',  ( 0.000000000000000000, 0.000000000000000000, 165.0000000000000000 ) ) ;
#208 = DIRECTION ( 'NONE',  ( 0.000000000000000000, 0.000000000000000000, 1.000000000000000000 ) ) ;
#209 = APPROVAL_PERSON_ORGANIZATION ( #92, #4, #43 ) ;
#210 = LINE ( 'NONE', #234, #263 ) ;
#211 = EDGE_CURVE ( 'NONE', #175, #218, #247, .T. ) ;
#212 = ADVANCED_FACE ( 'NONE', ( #18, #132 ), #276, .T. ) ;
#213 = DIRECTION ( 'NONE',  ( 1.000000000000000000, 0.000000000000000000, -0.000000000000000000 ) ) ;
#214 = APPROVAL_ROLE ( '' ) ;
#215 = EDGE_LOOP ( 'NONE', ( #72, #246, #270, #152 ) ) ;
#216 = CARTESIAN_POINT ( 'NONE',  ( 0.000000000000000000, 0.000000000000000000, 0.000000000000000000 ) ) ;
#217 = DIRECTION ( 'NONE',  ( -0.000000000000000000, -0.000000000000000000, -1.000000000000000000 ) ) ;
#218 = VERTEX_POINT ( 'NONE', #15 ) ;
#219 = ORIENTED_EDGE ( 'NONE', *, *, #211, .T. ) ;
#220 = ORIENTED_EDGE ( 'NONE', *, *, #107, .F. ) ;
#221 = PRODUCT_DEFINITION ( 'NEZNÁMÝ', '', #109, #58 ) ;
#222 = CIRCLE ( 'NONE', #204, 3.100000000000000089 ) ;
#223 = PERSON_AND_ORGANIZATION_ROLE ( 'classification_officer' ) ;
#224 = PERSON_AND_ORGANIZATION_ROLE ( 'design_supplier' ) ;
#225 = PRODUCT_RELATED_PRODUCT_CATEGORY ( 'detail', '', ( #10 ) ) ;
#226 = PERSON_AND_ORGANIZATION_ROLE ( 'creator' ) ;
#227 = CARTESIAN_POINT ( 'NONE',  ( 0.000000000000000000, 0.000000000000000000, 0.000000000000000000 ) ) ;
#228 = UNCERTAINTY_MEASURE_WITH_UNIT (LENGTH_MEASURE( 1.000000000000000082E-05 ), #281, 'distance_accuracy_value', 'NONE');
#229 = AXIS2_PLACEMENT_3D ( 'NONE', #189, #217, #101 ) ;
#230 = APPROVAL_PERSON_ORGANIZATION ( #295, #177, #291 ) ;
#231 = DIRECTION ( 'NONE',  ( 1.000000000000000000, 0.000000000000000000, 0.000000000000000000 ) ) ;
#232 = DIRECTION ( 'NONE',  ( 0.000000000000000000, 0.000000000000000000, 1.000000000000000000 ) ) ;
#233 = CARTESIAN_POINT ( 'NONE',  ( 0.000000000000000000, 0.000000000000000000, 165.0000000000000000 ) ) ;
#234 = CARTESIAN_POINT ( 'NONE',  ( -3.100000000000000089, 0.000000000000000000, 165.0000000000000000 ) ) ;
#235 = DIRECTION ( 'NONE',  ( 0.000000000000000000, 0.000000000000000000, 1.000000000000000000 ) ) ;
#236 = CC_DESIGN_PERSON_AND_ORGANIZATION_ASSIGNMENT ( #261, #64, ( #221 ) ) ;
#237 = DATE_TIME_ROLE ( 'creation_date' ) ;
#238 = EDGE_CURVE ( 'NONE', #1, #55, #66, .T. ) ;
#239 =( NAMED_UNIT ( * ) PLANE_ANGLE_UNIT ( ) SI_UNIT ( $, .RADIAN. ) );
#240 = TOROIDAL_SURFACE ( 'NONE', #98, 3.299999999999999822, 0.2000000000000000111 ) ;
#241 = MECHANICAL_CONTEXT ( 'NONE', #19, 'mechanical' ) ;
#242 = ORIENTED_EDGE ( 'NONE', *, *, #133, .T. ) ;
#243 = APPLICATION_CONTEXT ( 'configuration controlled 3d designs of mechanical parts and assemblies' ) ;
#244 = DIRECTION ( 'NONE',  ( 0.000000000000000000, -1.000000000000000000, 0.000000000000000000 ) ) ;
#245 = CC_DESIGN_APPROVAL ( #162, ( #221 ) ) ;
#246 = ORIENTED_EDGE ( 'NONE', *, *, #259, .T. ) ;
#247 = CIRCLE ( 'NONE', #156, 3.100000000000000089 ) ;
#248 = VERTEX_POINT ( 'NONE', #88 ) ;
#249 = DIRECTION ( 'NONE',  ( 1.224646799147353207E-16, 1.000000000000000000, -0.000000000000000000 ) ) ;
#250 = DATE_AND_TIME ( #108, #139 ) ;
#251 = EDGE_LOOP ( 'NONE', ( #198, #151, #104, #196 ) ) ;
#252 = LOCAL_TIME ( 14, 40, 35.00000000000000000, #153 ) ;
#253 = ADVANCED_FACE ( 'NONE', ( #160 ), #255, .T. ) ;
#254 = CARTESIAN_POINT ( 'NONE',  ( 0.000000000000000000, 0.000000000000000000, 5.200000000000009948 ) ) ;
#255 = PLANE ( 'NONE',  #122 ) ;
#256 = DIRECTION ( 'NONE',  ( -0.000000000000000000, -0.000000000000000000, -1.000000000000000000 ) ) ;
#257 = DIRECTION ( 'NONE',  ( -0.000000000000000000, -0.000000000000000000, -1.000000000000000000 ) ) ;
#258 = CALENDAR_DATE ( 2022, 7, 7 ) ;
#259 = EDGE_CURVE ( 'NONE', #2, #45, #185, .T. ) ;
#260 = EDGE_CURVE ( 'NONE', #1, #175, #23, .T. ) ;
#261 = PERSON_AND_ORGANIZATION ( #301, #99 ) ;
#262 = CARTESIAN_POINT ( 'NONE',  ( 0.000000000000000000, 0.000000000000000000, 0.000000000000000000 ) ) ;
#263 = VECTOR ( 'NONE', #63, 1000.000000000000000 ) ;
#264 = APPLICATION_PROTOCOL_DEFINITION ( 'international standard', 'config_control_design', 1994, #243 ) ;
#265 = CARTESIAN_POINT ( 'NONE',  ( 3.100000000000000089, 3.796405077356794918E-16, 165.0000000000000000 ) ) ;
#266 = CYLINDRICAL_SURFACE ( 'NONE', #192, 3.100000000000000089 ) ;
#267 = ORIENTED_EDGE ( 'NONE', *, *, #16, .F. ) ;
#268 = CARTESIAN_POINT ( 'NONE',  ( -3.299999999999999822, 4.041334437186265510E-16, 5.200000000000009948 ) ) ;
#269 = AXIS2_PLACEMENT_3D ( 'NONE', #227, #39, #278 ) ;
#270 = ORIENTED_EDGE ( 'NONE', *, *, #16, .T. ) ;
#271 = PRODUCT_DEFINITION_SHAPE ( 'NONE', 'NONE',  #221 ) ;
#272 = DATE_AND_TIME ( #180, #71 ) ;
#273 = CIRCLE ( 'NONE', #110, 0.1999999999999996503 ) ;
#274 = LOCAL_TIME ( 14, 40, 35.00000000000000000, #164 ) ;
#275 = DATE_TIME_ROLE ( 'classification_date' ) ;
#276 = PLANE ( 'NONE',  #148 ) ;
#277 = CARTESIAN_POINT ( 'NONE',  ( 0.000000000000000000, 0.000000000000000000, 5.000000000000000000 ) ) ;
#278 = DIRECTION ( 'NONE',  ( 1.000000000000000000, 0.000000000000000000, 0.000000000000000000 ) ) ;
#279 = CYLINDRICAL_SURFACE ( 'NONE', #304, 6.000000000000000888 ) ;
#280 = APPROVAL_DATE_TIME ( #190, #162 ) ;
#281 =( LENGTH_UNIT ( ) NAMED_UNIT ( * ) SI_UNIT ( .MILLI., .METRE. ) );
#282 = APPLICATION_PROTOCOL_DEFINITION ( 'international standard', 'config_control_design', 1994, #19 ) ;
#283 = CC_DESIGN_DATE_AND_TIME_ASSIGNMENT ( #272, #275, ( #31 ) ) ;
#284 = CARTESIAN_POINT ( 'NONE',  ( 0.000000000000000000, 0.000000000000000000, 165.0000000000000000 ) ) ;
#285 = ORIENTED_EDGE ( 'NONE', *, *, #260, .T. ) ;
#286 = DIRECTION ( 'NONE',  ( 1.000000000000000000, 0.000000000000000000, 0.000000000000000000 ) ) ;
#287 = CARTESIAN_POINT ( 'NONE',  ( 0.000000000000000000, 0.000000000000000000, 5.200000000000009948 ) ) ;
#288 = EDGE_CURVE ( 'NONE', #191, #2, #193, .T. ) ;
#289 = ADVANCED_FACE ( 'NONE', ( #143 ), #141, .T. ) ;
#290 = ORIENTED_EDGE ( 'NONE', *, *, #288, .F. ) ;
#291 = APPROVAL_ROLE ( '' ) ;
#292 = EDGE_LOOP ( 'NONE', ( #125, #8, #49, #293 ) ) ;
#293 = ORIENTED_EDGE ( 'NONE', *, *, #165, .F. ) ;
#294 = AXIS2_PLACEMENT_3D ( 'NONE', #94, #235, #25 ) ;
#295 = PERSON_AND_ORGANIZATION ( #301, #99 ) ;
#296 = CARTESIAN_POINT ( 'NONE',  ( 0.000000000000000000, 0.000000000000000000, 5.000000000000000000 ) ) ;
#297 = CC_DESIGN_PERSON_AND_ORGANIZATION_ASSIGNMENT ( #79, #223, ( #31 ) ) ;
#298 = DIRECTION ( 'NONE',  ( 1.000000000000000000, 0.000000000000000000, 0.000000000000000000 ) ) ;
#299 = CARTESIAN_POINT ( 'NONE',  ( 0.000000000000000000, 0.000000000000000000, 5.000000000000000000 ) ) ;
#300 = DIRECTION ( 'NONE',  ( 0.000000000000000000, 0.000000000000000000, 1.000000000000000000 ) ) ;
#301 = PERSON ( 'NEURÈENÝ', 'NEURÈENÝ', 'NEURÈENÝ', ('NEURÈENÝ'), ('NEURÈENÝ'), ('NEURÈENÝ') ) ;
#302 = PERSON_AND_ORGANIZATION_ROLE ( 'design_owner' ) ;
#303 = CALENDAR_DATE ( 2022, 7, 7 ) ;
#304 = AXIS2_PLACEMENT_3D ( 'NONE', #296, #256, #159 ) ;
#305 = DIRECTION ( 'NONE',  ( -0.000000000000000000, -0.000000000000000000, -1.000000000000000000 ) ) ;
#306 = CC_DESIGN_PERSON_AND_ORGANIZATION_ASSIGNMENT ( #56, #224, ( #109 ) ) ;
#307 = EDGE_LOOP ( 'NONE', ( #100, #128 ) ) ;
ENDSEC;
END-ISO-10303-21;
