ISO-10303-21;
HEADER;
FILE_DESCRIPTION (( 'STEP AP203' ),
    '1' );
FILE_NAME ('af58.STEP',
    '2022-07-07T12:37:46',
    ( '' ),
    ( '' ),
    'SwSTEP 2.0',
    'SolidWorks 2019',
    '' );
FILE_SCHEMA (( 'CONFIG_CONTROL_DESIGN' ));
ENDSEC;

DATA;
#1 = ADVANCED_FACE ( 'NONE', ( #240 ), #85, .T. ) ;
#2 = CARTESIAN_POINT ( 'NONE',  ( 6.000000000000000888, 7.347880794884120722E-16, 5.000000000000000000 ) ) ;
#3 = EDGE_CURVE ( 'NONE', #280, #64, #247, .T. ) ;
#4 = PERSON_AND_ORGANIZATION_ROLE ( 'design_supplier' ) ;
#5 = VERTEX_POINT ( 'NONE', #2 ) ;
#6 = FACE_OUTER_BOUND ( 'NONE', #7, .T. ) ;
#7 = EDGE_LOOP ( 'NONE', ( #186, #250 ) ) ;
#8 = CARTESIAN_POINT ( 'NONE',  ( -6.000000000000000888, 0.000000000000000000, 5.000000000000000000 ) ) ;
#9 = ORIENTED_EDGE ( 'NONE', *, *, #278, .F. ) ;
#10 = DIRECTION ( 'NONE',  ( -1.000000000000000000, 0.000000000000000000, 0.000000000000000000 ) ) ;
#11 = EDGE_LOOP ( 'NONE', ( #111, #220, #166, #31 ) ) ;
#12 = CARTESIAN_POINT ( 'NONE',  ( 3.700000000000000178, 0.000000000000000000, 5.000000000000005329 ) ) ;
#13 = DIRECTION ( 'NONE',  ( 1.000000000000000000, 0.000000000000000000, 0.000000000000000000 ) ) ;
#14 = ADVANCED_FACE ( 'NONE', ( #265 ), #103, .F. ) ;
#15 = CIRCLE ( 'NONE', #61, 0.1999999999999996503 ) ;
#16 = LOCAL_TIME ( 14, 37, 46.00000000000000000, #70 ) ;
#17 = FACE_OUTER_BOUND ( 'NONE', #192, .T. ) ;
#18 = CARTESIAN_POINT ( 'NONE',  ( 0.000000000000000000, 0.000000000000000000, 0.000000000000000000 ) ) ;
#19 = APPLICATION_PROTOCOL_DEFINITION ( 'international standard', 'config_control_design', 1994, #100 ) ;
#20 = APPROVAL_ROLE ( '' ) ;
#21 = AXIS2_PLACEMENT_3D ( 'NONE', #110, #205, #255 ) ;
#22 = EDGE_CURVE ( 'NONE', #109, #280, #72, .T. ) ;
#23 = DATE_AND_TIME ( #123, #122 ) ;
#24 = CIRCLE ( 'NONE', #279, 6.000000000000000888 ) ;
#25 = MANIFOLD_SOLID_BREP ( 'Zaoblit1', #211 ) ;
#26 = EDGE_CURVE ( 'NONE', #5, #180, #44, .T. ) ;
#27 = CARTESIAN_POINT ( 'NONE',  ( 0.000000000000000000, 0.000000000000000000, 5.000000000000000000 ) ) ;
#28 = CALENDAR_DATE ( 2022, 7, 7 ) ;
#29 = DIRECTION ( 'NONE',  ( -1.000000000000000000, 1.224646799147350742E-16, 0.000000000000000000 ) ) ;
#30 = DIRECTION ( 'NONE',  ( 0.000000000000000000, 0.000000000000000000, 1.000000000000000000 ) ) ;
#31 = ORIENTED_EDGE ( 'NONE', *, *, #3, .F. ) ;
#32 = CARTESIAN_POINT ( 'NONE',  ( 0.000000000000000000, 0.000000000000000000, 5.000000000000000000 ) ) ;
#33 = AXIS2_PLACEMENT_3D ( 'NONE', #68, #236, #67 ) ;
#34 = ORIENTED_EDGE ( 'NONE', *, *, #190, .F. ) ;
#35 = ORIENTED_EDGE ( 'NONE', *, *, #51, .T. ) ;
#36 = PERSON ( 'NEURÈENÝ', 'NEURÈENÝ', 'NEURÈENÝ', ('NEURÈENÝ'), ('NEURÈENÝ'), ('NEURÈENÝ') ) ;
#37 = DIRECTION ( 'NONE',  ( 0.000000000000000000, 0.000000000000000000, 1.000000000000000000 ) ) ;
#38 = DIRECTION ( 'NONE',  ( 1.000000000000000000, 0.000000000000000000, 0.000000000000000000 ) ) ;
#39 = DIRECTION ( 'NONE',  ( 1.000000000000000000, 0.000000000000000000, 0.000000000000000000 ) ) ;
#40 = AXIS2_PLACEMENT_3D ( 'NONE', #128, #37, #13 ) ;
#41 = ADVANCED_FACE ( 'NONE', ( #133 ), #168, .F. ) ;
#42 = APPROVAL_STATUS ( 'not_yet_approved' ) ;
#43 = DIRECTION ( 'NONE',  ( -1.000000000000000000, 0.000000000000000000, 0.000000000000000000 ) ) ;
#44 = CIRCLE ( 'NONE', #73, 6.000000000000000888 ) ;
#45 = PRODUCT_DEFINITION_FORMATION_WITH_SPECIFIED_SOURCE ( 'LIBOVOLNÝ', '', #142, .NOT_KNOWN. ) ;
#46 = PERSON_AND_ORGANIZATION_ROLE ( 'design_owner' ) ;
#47 = EDGE_CURVE ( 'NONE', #289, #83, #157, .T. ) ;
#48 = CALENDAR_DATE ( 2022, 7, 7 ) ;
#49 = PRODUCT_DEFINITION_SHAPE ( 'NONE', 'NONE',  #59 ) ;
#50 = UNCERTAINTY_MEASURE_WITH_UNIT (LENGTH_MEASURE( 1.000000000000000082E-05 ), #230, 'distance_accuracy_value', 'NONE');
#51 = EDGE_CURVE ( 'NONE', #109, #83, #215, .T. ) ;
#52 = APPROVAL_DATE_TIME ( #241, #102 ) ;
#53 = APPROVAL_STATUS ( 'not_yet_approved' ) ;
#54 = APPROVAL_PERSON_ORGANIZATION ( #213, #245, #20 ) ;
#55 = ORIENTED_EDGE ( 'NONE', *, *, #141, .T. ) ;
#56 = ORIENTED_EDGE ( 'NONE', *, *, #22, .T. ) ;
#57 = DIRECTION ( 'NONE',  ( -0.000000000000000000, -0.000000000000000000, -1.000000000000000000 ) ) ;
#58 = EDGE_LOOP ( 'NONE', ( #248, #9, #149, #35 ) ) ;
#59 = PRODUCT_DEFINITION ( 'NEZNÁMÝ', '', #45, #257 ) ;
#60 = CARTESIAN_POINT ( 'NONE',  ( 0.000000000000000000, 0.000000000000000000, 5.200000000000009948 ) ) ;
#61 = AXIS2_PLACEMENT_3D ( 'NONE', #179, #253, #114 ) ;
#62 = CC_DESIGN_APPROVAL ( #66, ( #59 ) ) ;
#63 = DIRECTION ( 'NONE',  ( -0.000000000000000000, -0.000000000000000000, -1.000000000000000000 ) ) ;
#64 = VERTEX_POINT ( 'NONE', #12 ) ;
#65 = PLANE ( 'NONE',  #284 ) ;
#66 = APPROVAL ( #256, 'NEURÈENÝ' ) ;
#67 = DIRECTION ( 'NONE',  ( -1.000000000000000000, 0.000000000000000000, 0.000000000000000000 ) ) ;
#68 = CARTESIAN_POINT ( 'NONE',  ( 0.000000000000000000, 0.000000000000000000, 165.0000000000000000 ) ) ;
#69 = ADVANCED_BREP_SHAPE_REPRESENTATION ( 'af58', ( #25, #277 ), #152 ) ;
#70 = COORDINATED_UNIVERSAL_TIME_OFFSET ( 1, 0, .AHEAD. ) ;
#71 = CYLINDRICAL_SURFACE ( 'NONE', #33, 3.500000000000000000 ) ;
#72 = CIRCLE ( 'NONE', #183, 0.2000000000000000944 ) ;
#73 = AXIS2_PLACEMENT_3D ( 'NONE', #226, #252, #38 ) ;
#74 = CC_DESIGN_APPROVAL ( #245, ( #101 ) ) ;
#75 = DATE_AND_TIME ( #274, #16 ) ;
#76 = AXIS2_PLACEMENT_3D ( 'NONE', #27, #63, #173 ) ;
#77 = VECTOR ( 'NONE', #140, 1000.000000000000000 ) ;
#78 = DIRECTION ( 'NONE',  ( 1.000000000000000000, 0.000000000000000000, -0.000000000000000000 ) ) ;
#79 = CIRCLE ( 'NONE', #106, 3.500000000000000000 ) ;
#80 = ORIENTED_EDGE ( 'NONE', *, *, #47, .T. ) ;
#81 = DIRECTION ( 'NONE',  ( 1.000000000000000000, 0.000000000000000000, 0.000000000000000000 ) ) ;
#82 = CC_DESIGN_PERSON_AND_ORGANIZATION_ASSIGNMENT ( #212, #170, ( #101 ) ) ;
#83 = VERTEX_POINT ( 'NONE', #174 ) ;
#84 = CARTESIAN_POINT ( 'NONE',  ( 0.000000000000000000, 0.000000000000000000, 165.0000000000000000 ) ) ;
#85 = PLANE ( 'NONE',  #300 ) ;
#86 = DIRECTION ( 'NONE',  ( 0.000000000000000000, 0.000000000000000000, 1.000000000000000000 ) ) ;
#87 = ORIENTED_EDGE ( 'NONE', *, *, #88, .F. ) ;
#88 = EDGE_CURVE ( 'NONE', #125, #109, #156, .T. ) ;
#89 = DIRECTION ( 'NONE',  ( 0.000000000000000000, 0.000000000000000000, 1.000000000000000000 ) ) ;
#90 = CARTESIAN_POINT ( 'NONE',  ( 0.000000000000000000, 0.000000000000000000, 5.000000000000000000 ) ) ;
#91 = CARTESIAN_POINT ( 'NONE',  ( 0.000000000000000000, 0.000000000000000000, 5.000000000000000000 ) ) ;
#92 = CIRCLE ( 'NONE', #169, 3.500000000000000000 ) ;
#93 = DIRECTION ( 'NONE',  ( 1.000000000000000000, 0.000000000000000000, 0.000000000000000000 ) ) ;
#94 = CYLINDRICAL_SURFACE ( 'NONE', #254, 6.000000000000000888 ) ;
#95 = PERSON_AND_ORGANIZATION ( #36, #200 ) ;
#96 = EDGE_LOOP ( 'NONE', ( #287, #271 ) ) ;
#97 = PERSON_AND_ORGANIZATION ( #36, #200 ) ;
#98 = COORDINATED_UNIVERSAL_TIME_OFFSET ( 1, 0, .AHEAD. ) ;
#99 = PERSON_AND_ORGANIZATION_ROLE ( 'creator' ) ;
#100 = APPLICATION_CONTEXT ( 'configuration controlled 3d designs of mechanical parts and assemblies' ) ;
#101 = SECURITY_CLASSIFICATION ( '', '', #307 ) ;
#102 = APPROVAL ( #42, 'NEURÈENÝ' ) ;
#103 = PLANE ( 'NONE',  #119 ) ;
#104 = DATE_AND_TIME ( #28, #135 ) ;
#105 = EDGE_LOOP ( 'NONE', ( #34, #267 ) ) ;
#106 = AXIS2_PLACEMENT_3D ( 'NONE', #222, #112, #182 ) ;
#107 = EDGE_CURVE ( 'NONE', #83, #64, #15, .T. ) ;
#108 = DIRECTION ( 'NONE',  ( 0.000000000000000000, 0.000000000000000000, 1.000000000000000000 ) ) ;
#109 = VERTEX_POINT ( 'NONE', #153 ) ;
#110 = CARTESIAN_POINT ( 'NONE',  ( 0.000000000000000000, 0.000000000000000000, 165.0000000000000000 ) ) ;
#111 = ORIENTED_EDGE ( 'NONE', *, *, #22, .F. ) ;
#112 = DIRECTION ( 'NONE',  ( 0.000000000000000000, 0.000000000000000000, 1.000000000000000000 ) ) ;
#113 = EDGE_LOOP ( 'NONE', ( #131, #80, #151, #87 ) ) ;
#114 = DIRECTION ( 'NONE',  ( 0.000000000000000000, 0.000000000000000000, -1.000000000000000000 ) ) ;
#115 = CIRCLE ( 'NONE', #239, 6.000000000000000888 ) ;
#116 = AXIS2_PLACEMENT_3D ( 'NONE', #273, #86, #243 ) ;
#117 = DIRECTION ( 'NONE',  ( 1.000000000000000000, 0.000000000000000000, 0.000000000000000000 ) ) ;
#118 = DIRECTION ( 'NONE',  ( 0.000000000000000000, 0.000000000000000000, 1.000000000000000000 ) ) ;
#119 = AXIS2_PLACEMENT_3D ( 'NONE', #191, #286, #263 ) ;
#120 = APPROVAL_DATE_TIME ( #75, #66 ) ;
#121 = EDGE_CURVE ( 'NONE', #5, #129, #268, .T. ) ;
#122 = LOCAL_TIME ( 14, 37, 46.00000000000000000, #98 ) ;
#123 = CALENDAR_DATE ( 2022, 7, 7 ) ;
#124 = ORIENTED_EDGE ( 'NONE', *, *, #121, .T. ) ;
#125 = VERTEX_POINT ( 'NONE', #251 ) ;
#126 = CARTESIAN_POINT ( 'NONE',  ( 0.000000000000000000, 0.000000000000000000, 5.000000000000000000 ) ) ;
#127 = ORIENTED_EDGE ( 'NONE', *, *, #51, .F. ) ;
#128 = CARTESIAN_POINT ( 'NONE',  ( 0.000000000000000000, 0.000000000000000000, 5.200000000000009948 ) ) ;
#129 = VERTEX_POINT ( 'NONE', #201 ) ;
#130 = DIRECTION ( 'NONE',  ( 1.000000000000000000, 0.000000000000000000, -0.000000000000000000 ) ) ;
#131 = ORIENTED_EDGE ( 'NONE', *, *, #227, .F. ) ;
#132 = CARTESIAN_POINT ( 'NONE',  ( 0.000000000000000000, 0.000000000000000000, 0.000000000000000000 ) ) ;
#133 = FACE_OUTER_BOUND ( 'NONE', #304, .T. ) ;
#134 = DIRECTION ( 'NONE',  ( 1.000000000000000000, 0.000000000000000000, 0.000000000000000000 ) ) ;
#135 = LOCAL_TIME ( 14, 37, 46.00000000000000000, #285 ) ;
#136 = APPROVAL_ROLE ( '' ) ;
#137 = CC_DESIGN_DATE_AND_TIME_ASSIGNMENT ( #210, #306, ( #59 ) ) ;
#138 = MECHANICAL_CONTEXT ( 'NONE', #100, 'mechanical' ) ;
#139 = AXIS2_PLACEMENT_3D ( 'NONE', #84, #57, #10 ) ;
#140 = DIRECTION ( 'NONE',  ( -0.000000000000000000, -0.000000000000000000, -1.000000000000000000 ) ) ;
#141 = EDGE_CURVE ( 'NONE', #64, #280, #232, .T. ) ;
#142 = PRODUCT ( 'af58', 'af58', '', ( #138 ) ) ;
#143 = LOCAL_TIME ( 14, 37, 46.00000000000000000, #204 ) ;
#144 = ADVANCED_FACE ( 'NONE', ( #203 ), #181, .T. ) ;
#145 = AXIS2_PLACEMENT_3D ( 'NONE', #158, #225, #81 ) ;
#146 = PERSON_AND_ORGANIZATION ( #36, #200 ) ;
#147 = ORIENTED_EDGE ( 'NONE', *, *, #3, .T. ) ;
#148 = CARTESIAN_POINT ( 'NONE',  ( -6.000000000000000888, 0.000000000000000000, 0.000000000000000000 ) ) ;
#149 = ORIENTED_EDGE ( 'NONE', *, *, #88, .T. ) ;
#150 = DIRECTION ( 'NONE',  ( -0.000000000000000000, -0.000000000000000000, -1.000000000000000000 ) ) ;
#151 = ORIENTED_EDGE ( 'NONE', *, *, #178, .T. ) ;
#152 =( GEOMETRIC_REPRESENTATION_CONTEXT ( 3 ) GLOBAL_UNCERTAINTY_ASSIGNED_CONTEXT ( ( #50 ) ) GLOBAL_UNIT_ASSIGNED_CONTEXT ( ( #230, #258, #302 ) ) REPRESENTATION_CONTEXT ( 'NONE', 'WORKASPACE' ) );
#153 = CARTESIAN_POINT ( 'NONE',  ( -3.500000000000000000, 0.000000000000000000, 5.200000000000009948 ) ) ;
#154 = ORIENTED_EDGE ( 'NONE', *, *, #264, .F. ) ;
#155 = ADVANCED_FACE ( 'NONE', ( #193 ), #290, .T. ) ;
#156 = LINE ( 'NONE', #266, #261 ) ;
#157 = LINE ( 'NONE', #246, #163 ) ;
#158 = CARTESIAN_POINT ( 'NONE',  ( 0.000000000000000000, 0.000000000000000000, 5.200000000000009948 ) ) ;
#159 = CARTESIAN_POINT ( 'NONE',  ( 3.500000000000000000, 4.286263797015736595E-16, 165.0000000000000000 ) ) ;
#160 = CIRCLE ( 'NONE', #116, 6.000000000000000888 ) ;
#161 = ADVANCED_FACE ( 'NONE', ( #195 ), #305, .F. ) ;
#162 = PERSON_AND_ORGANIZATION ( #36, #200 ) ;
#163 = VECTOR ( 'NONE', #229, 1000.000000000000000 ) ;
#164 = APPROVAL_ROLE ( '' ) ;
#165 = CC_DESIGN_PERSON_AND_ORGANIZATION_ASSIGNMENT ( #237, #99, ( #45 ) ) ;
#166 = ORIENTED_EDGE ( 'NONE', *, *, #107, .T. ) ;
#167 = CALENDAR_DATE ( 2022, 7, 7 ) ;
#168 = TOROIDAL_SURFACE ( 'NONE', #145, 3.700000000000000178, 0.2000000000000000111 ) ;
#169 = AXIS2_PLACEMENT_3D ( 'NONE', #184, #118, #235 ) ;
#170 = PERSON_AND_ORGANIZATION_ROLE ( 'classification_officer' ) ;
#171 = AXIS2_PLACEMENT_3D ( 'NONE', #126, #272, #219 ) ;
#172 = CARTESIAN_POINT ( 'NONE',  ( -3.700000000000000178, 4.531193156845206201E-16, 5.200000000000009948 ) ) ;
#173 = DIRECTION ( 'NONE',  ( 1.000000000000000000, 0.000000000000000000, 0.000000000000000000 ) ) ;
#174 = CARTESIAN_POINT ( 'NONE',  ( 3.500000000000000000, 4.286263797015736595E-16, 5.200000000000009948 ) ) ;
#175 = EDGE_LOOP ( 'NONE', ( #55, #147 ) ) ;
#176 = FACE_BOUND ( 'NONE', #175, .T. ) ;
#177 = DIRECTION ( 'NONE',  ( 0.000000000000000000, 0.000000000000000000, 1.000000000000000000 ) ) ;
#178 = EDGE_CURVE ( 'NONE', #83, #109, #79, .T. ) ;
#179 = CARTESIAN_POINT ( 'NONE',  ( 3.700000000000000178, 0.000000000000000000, 5.200000000000009948 ) ) ;
#180 = VERTEX_POINT ( 'NONE', #8 ) ;
#181 = CYLINDRICAL_SURFACE ( 'NONE', #139, 3.500000000000000000 ) ;
#182 = DIRECTION ( 'NONE',  ( 1.000000000000000000, 0.000000000000000000, 0.000000000000000000 ) ) ;
#183 = AXIS2_PLACEMENT_3D ( 'NONE', #172, #242, #29 ) ;
#184 = CARTESIAN_POINT ( 'NONE',  ( 0.000000000000000000, 0.000000000000000000, 165.0000000000000000 ) ) ;
#185 = APPLICATION_PROTOCOL_DEFINITION ( 'international standard', 'config_control_design', 1994, #262 ) ;
#186 = ORIENTED_EDGE ( 'NONE', *, *, #208, .T. ) ;
#187 = PERSON_AND_ORGANIZATION ( #36, #200 ) ;
#188 = CC_DESIGN_PERSON_AND_ORGANIZATION_ASSIGNMENT ( #187, #46, ( #142 ) ) ;
#189 = CC_DESIGN_SECURITY_CLASSIFICATION ( #101, ( #45 ) ) ;
#190 = EDGE_CURVE ( 'NONE', #218, #129, #24, .T. ) ;
#191 = CARTESIAN_POINT ( 'NONE',  ( 0.000000000000000000, 0.000000000000000000, 0.000000000000000000 ) ) ;
#192 = EDGE_LOOP ( 'NONE', ( #199, #197, #293, #224 ) ) ;
#193 = FACE_OUTER_BOUND ( 'NONE', #244, .T. ) ;
#194 = ORIENTED_EDGE ( 'NONE', *, *, #107, .F. ) ;
#195 = FACE_OUTER_BOUND ( 'NONE', #11, .T. ) ;
#196 = ADVANCED_FACE ( 'NONE', ( #176, #6 ), #65, .T. ) ;
#197 = ORIENTED_EDGE ( 'NONE', *, *, #208, .F. ) ;
#198 = DIRECTION ( 'NONE',  ( 0.000000000000000000, 0.000000000000000000, 1.000000000000000000 ) ) ;
#199 = ORIENTED_EDGE ( 'NONE', *, *, #121, .F. ) ;
#200 = ORGANIZATION ( 'NEURÈENÝ', 'NEURÈENÝ', '' ) ;
#201 = CARTESIAN_POINT ( 'NONE',  ( 6.000000000000000888, 7.347880794884120722E-16, 0.000000000000000000 ) ) ;
#202 = CC_DESIGN_PERSON_AND_ORGANIZATION_ASSIGNMENT ( #95, #209, ( #59 ) ) ;
#203 = FACE_OUTER_BOUND ( 'NONE', #58, .T. ) ;
#204 = COORDINATED_UNIVERSAL_TIME_OFFSET ( 1, 0, .AHEAD. ) ;
#205 = DIRECTION ( 'NONE',  ( 0.000000000000000000, 0.000000000000000000, 1.000000000000000000 ) ) ;
#206 = VECTOR ( 'NONE', #288, 1000.000000000000000 ) ;
#207 = FACE_OUTER_BOUND ( 'NONE', #113, .T. ) ;
#208 = EDGE_CURVE ( 'NONE', #180, #5, #115, .T. ) ;
#209 = PERSON_AND_ORGANIZATION_ROLE ( 'creator' ) ;
#210 = DATE_AND_TIME ( #48, #249 ) ;
#211 = CLOSED_SHELL ( 'NONE', ( #41, #234, #155, #295, #196, #14, #144, #1, #161 ) ) ;
#212 = PERSON_AND_ORGANIZATION ( #36, #200 ) ;
#213 = PERSON_AND_ORGANIZATION ( #36, #200 ) ;
#214 = SHAPE_DEFINITION_REPRESENTATION ( #49, #69 ) ;
#215 = CIRCLE ( 'NONE', #228, 3.500000000000000000 ) ;
#216 = EDGE_CURVE ( 'NONE', #129, #218, #160, .T. ) ;
#217 = ORIENTED_EDGE ( 'NONE', *, *, #26, .F. ) ;
#218 = VERTEX_POINT ( 'NONE', #148 ) ;
#219 = DIRECTION ( 'NONE',  ( -1.000000000000000000, 0.000000000000000000, 0.000000000000000000 ) ) ;
#220 = ORIENTED_EDGE ( 'NONE', *, *, #178, .F. ) ;
#221 = CIRCLE ( 'NONE', #21, 3.500000000000000000 ) ;
#222 = CARTESIAN_POINT ( 'NONE',  ( 0.000000000000000000, 0.000000000000000000, 5.200000000000009948 ) ) ;
#223 = CARTESIAN_POINT ( 'NONE',  ( 0.000000000000000000, 0.000000000000000000, 165.0000000000000000 ) ) ;
#224 = ORIENTED_EDGE ( 'NONE', *, *, #190, .T. ) ;
#225 = DIRECTION ( 'NONE',  ( 0.000000000000000000, 0.000000000000000000, 1.000000000000000000 ) ) ;
#226 = CARTESIAN_POINT ( 'NONE',  ( 0.000000000000000000, 0.000000000000000000, 5.000000000000000000 ) ) ;
#227 = EDGE_CURVE ( 'NONE', #289, #125, #221, .T. ) ;
#228 = AXIS2_PLACEMENT_3D ( 'NONE', #60, #30, #39 ) ;
#229 = DIRECTION ( 'NONE',  ( -0.000000000000000000, -0.000000000000000000, -1.000000000000000000 ) ) ;
#230 =( LENGTH_UNIT ( ) NAMED_UNIT ( * ) SI_UNIT ( .MILLI., .METRE. ) );
#231 = CARTESIAN_POINT ( 'NONE',  ( -3.700000000000000178, 4.531193156845206201E-16, 5.000000000000005329 ) ) ;
#232 = CIRCLE ( 'NONE', #283, 3.700000000000000178 ) ;
#233 = APPROVAL_PERSON_ORGANIZATION ( #97, #102, #136 ) ;
#234 = ADVANCED_FACE ( 'NONE', ( #207 ), #71, .T. ) ;
#235 = DIRECTION ( 'NONE',  ( 1.000000000000000000, 0.000000000000000000, 0.000000000000000000 ) ) ;
#236 = DIRECTION ( 'NONE',  ( -0.000000000000000000, -0.000000000000000000, -1.000000000000000000 ) ) ;
#237 = PERSON_AND_ORGANIZATION ( #36, #200 ) ;
#238 = CC_DESIGN_PERSON_AND_ORGANIZATION_ASSIGNMENT ( #146, #4, ( #45 ) ) ;
#239 = AXIS2_PLACEMENT_3D ( 'NONE', #90, #198, #292 ) ;
#240 = FACE_OUTER_BOUND ( 'NONE', #96, .T. ) ;
#241 = DATE_AND_TIME ( #167, #143 ) ;
#242 = DIRECTION ( 'NONE',  ( 1.224646799147353207E-16, 1.000000000000000000, -0.000000000000000000 ) ) ;
#243 = DIRECTION ( 'NONE',  ( 1.000000000000000000, 0.000000000000000000, 0.000000000000000000 ) ) ;
#244 = EDGE_LOOP ( 'NONE', ( #217, #124, #269, #154 ) ) ;
#245 = APPROVAL ( #53, 'NEURÈENÝ' ) ;
#246 = CARTESIAN_POINT ( 'NONE',  ( 3.500000000000000000, 4.286263797015736595E-16, 165.0000000000000000 ) ) ;
#247 = CIRCLE ( 'NONE', #76, 3.700000000000000178 ) ;
#248 = ORIENTED_EDGE ( 'NONE', *, *, #47, .F. ) ;
#249 = LOCAL_TIME ( 14, 37, 46.00000000000000000, #303 ) ;
#250 = ORIENTED_EDGE ( 'NONE', *, *, #26, .T. ) ;
#251 = CARTESIAN_POINT ( 'NONE',  ( -3.500000000000000000, 0.000000000000000000, 165.0000000000000000 ) ) ;
#252 = DIRECTION ( 'NONE',  ( 0.000000000000000000, 0.000000000000000000, 1.000000000000000000 ) ) ;
#253 = DIRECTION ( 'NONE',  ( 0.000000000000000000, -1.000000000000000000, 0.000000000000000000 ) ) ;
#254 = AXIS2_PLACEMENT_3D ( 'NONE', #91, #298, #43 ) ;
#255 = DIRECTION ( 'NONE',  ( 1.000000000000000000, 0.000000000000000000, 0.000000000000000000 ) ) ;
#256 = APPROVAL_STATUS ( 'not_yet_approved' ) ;
#257 = DESIGN_CONTEXT ( 'detailed design', #262, 'design' ) ;
#258 =( NAMED_UNIT ( * ) PLANE_ANGLE_UNIT ( ) SI_UNIT ( $, .RADIAN. ) );
#259 = PRODUCT_RELATED_PRODUCT_CATEGORY ( 'detail', '', ( #142 ) ) ;
#260 = APPROVAL_PERSON_ORGANIZATION ( #162, #66, #164 ) ;
#261 = VECTOR ( 'NONE', #150, 1000.000000000000000 ) ;
#262 = APPLICATION_CONTEXT ( 'configuration controlled 3d designs of mechanical parts and assemblies' ) ;
#263 = DIRECTION ( 'NONE',  ( 1.000000000000000000, 0.000000000000000000, -0.000000000000000000 ) ) ;
#264 = EDGE_CURVE ( 'NONE', #180, #218, #275, .T. ) ;
#265 = FACE_OUTER_BOUND ( 'NONE', #105, .T. ) ;
#266 = CARTESIAN_POINT ( 'NONE',  ( -3.500000000000000000, 0.000000000000000000, 165.0000000000000000 ) ) ;
#267 = ORIENTED_EDGE ( 'NONE', *, *, #216, .F. ) ;
#268 = LINE ( 'NONE', #270, #206 ) ;
#269 = ORIENTED_EDGE ( 'NONE', *, *, #216, .T. ) ;
#270 = CARTESIAN_POINT ( 'NONE',  ( 6.000000000000000888, 7.347880794884120722E-16, 5.000000000000000000 ) ) ;
#271 = ORIENTED_EDGE ( 'NONE', *, *, #227, .T. ) ;
#272 = DIRECTION ( 'NONE',  ( -0.000000000000000000, -0.000000000000000000, -1.000000000000000000 ) ) ;
#273 = CARTESIAN_POINT ( 'NONE',  ( 0.000000000000000000, 0.000000000000000000, 0.000000000000000000 ) ) ;
#274 = CALENDAR_DATE ( 2022, 7, 7 ) ;
#275 = LINE ( 'NONE', #276, #77 ) ;
#276 = CARTESIAN_POINT ( 'NONE',  ( -6.000000000000000888, 0.000000000000000000, 5.000000000000000000 ) ) ;
#277 = AXIS2_PLACEMENT_3D ( 'NONE', #18, #301, #93 ) ;
#278 = EDGE_CURVE ( 'NONE', #125, #289, #92, .T. ) ;
#279 = AXIS2_PLACEMENT_3D ( 'NONE', #132, #89, #117 ) ;
#280 = VERTEX_POINT ( 'NONE', #231 ) ;
#281 = APPROVAL_DATE_TIME ( #104, #245 ) ;
#282 = DATE_TIME_ROLE ( 'classification_date' ) ;
#283 = AXIS2_PLACEMENT_3D ( 'NONE', #32, #296, #134 ) ;
#284 = AXIS2_PLACEMENT_3D ( 'NONE', #297, #108, #130 ) ;
#285 = COORDINATED_UNIVERSAL_TIME_OFFSET ( 1, 0, .AHEAD. ) ;
#286 = DIRECTION ( 'NONE',  ( 0.000000000000000000, 0.000000000000000000, 1.000000000000000000 ) ) ;
#287 = ORIENTED_EDGE ( 'NONE', *, *, #278, .T. ) ;
#288 = DIRECTION ( 'NONE',  ( -0.000000000000000000, -0.000000000000000000, -1.000000000000000000 ) ) ;
#289 = VERTEX_POINT ( 'NONE', #159 ) ;
#290 = CYLINDRICAL_SURFACE ( 'NONE', #171, 6.000000000000000888 ) ;
#291 = ORIENTED_EDGE ( 'NONE', *, *, #141, .F. ) ;
#292 = DIRECTION ( 'NONE',  ( 1.000000000000000000, 0.000000000000000000, 0.000000000000000000 ) ) ;
#293 = ORIENTED_EDGE ( 'NONE', *, *, #264, .T. ) ;
#294 = CC_DESIGN_APPROVAL ( #102, ( #45 ) ) ;
#295 = ADVANCED_FACE ( 'NONE', ( #17 ), #94, .T. ) ;
#296 = DIRECTION ( 'NONE',  ( -0.000000000000000000, -0.000000000000000000, -1.000000000000000000 ) ) ;
#297 = CARTESIAN_POINT ( 'NONE',  ( 0.000000000000000000, 0.000000000000000000, 5.000000000000000000 ) ) ;
#298 = DIRECTION ( 'NONE',  ( -0.000000000000000000, -0.000000000000000000, -1.000000000000000000 ) ) ;
#299 = CC_DESIGN_DATE_AND_TIME_ASSIGNMENT ( #23, #282, ( #101 ) ) ;
#300 = AXIS2_PLACEMENT_3D ( 'NONE', #223, #177, #78 ) ;
#301 = DIRECTION ( 'NONE',  ( 0.000000000000000000, 0.000000000000000000, 1.000000000000000000 ) ) ;
#302 =( NAMED_UNIT ( * ) SI_UNIT ( $, .STERADIAN. ) SOLID_ANGLE_UNIT ( ) );
#303 = COORDINATED_UNIVERSAL_TIME_OFFSET ( 1, 0, .AHEAD. ) ;
#304 = EDGE_LOOP ( 'NONE', ( #127, #56, #291, #194 ) ) ;
#305 = TOROIDAL_SURFACE ( 'NONE', #40, 3.700000000000000178, 0.2000000000000000111 ) ;
#306 = DATE_TIME_ROLE ( 'creation_date' ) ;
#307 = SECURITY_CLASSIFICATION_LEVEL ( 'unclassified' ) ;
ENDSEC;
END-ISO-10303-21;
