ISO-10303-21;
HEADER;
FILE_DESCRIPTION (( 'STEP AP203' ),
    '1' );
FILE_NAME ('6197.STEP',
    '2023-02-12T10:39:26',
    ( '' ),
    ( '' ),
    'SwSTEP 2.0',
    'SolidWorks 2019',
    '' );
FILE_SCHEMA (( 'CONFIG_CONTROL_DESIGN' ));
ENDSEC;

DATA;
#1 = APPROVAL_STATUS ( 'not_yet_approved' ) ;
#2 = APPROVAL_ROLE ( '' ) ;
#3 = APPROVAL_ROLE ( '' ) ;
#4 = ORIENTED_EDGE ( 'NONE', *, *, #164, .F. ) ;
#5 = VERTEX_POINT ( 'NONE', #245 ) ;
#6 = DIRECTION ( 'NONE',  ( -0.000000000000000000, -0.000000000000000000, -1.000000000000000000 ) ) ;
#7 = EDGE_CURVE ( 'NONE', #244, #5, #183, .T. ) ;
#8 = DESIGN_CONTEXT ( 'detailed design', #32, 'design' ) ;
#9 = FACE_OUTER_BOUND ( 'NONE', #202, .T. ) ;
#10 = CARTESIAN_POINT ( 'NONE',  ( 0.000000000000000000, 0.000000000000000000, 315.0000000000000000 ) ) ;
#11 = DIRECTION ( 'NONE',  ( -0.000000000000000000, -0.000000000000000000, -1.000000000000000000 ) ) ;
#12 = DIRECTION ( 'NONE',  ( 1.000000000000000000, 0.000000000000000000, 0.000000000000000000 ) ) ;
#13 = EDGE_CURVE ( 'NONE', #50, #176, #141, .T. ) ;
#14 = PERSON_AND_ORGANIZATION ( #189, #16 ) ;
#15 = ORIENTED_EDGE ( 'NONE', *, *, #13, .T. ) ;
#16 = ORGANIZATION ( 'NEURÈENÝ', 'NEURÈENÝ', '' ) ;
#17 = DATE_AND_TIME ( #221, #72 ) ;
#18 =( NAMED_UNIT ( * ) SI_UNIT ( $, .STERADIAN. ) SOLID_ANGLE_UNIT ( ) );
#19 = LOCAL_TIME ( 11, 39, 26.00000000000000000, #40 ) ;
#20 = ORIENTED_EDGE ( 'NONE', *, *, #207, .F. ) ;
#21 = CC_DESIGN_PERSON_AND_ORGANIZATION_ASSIGNMENT ( #184, #144, ( #62 ) ) ;
#22 = DIRECTION ( 'NONE',  ( 1.000000000000000000, 0.000000000000000000, 0.000000000000000000 ) ) ;
#23 = AXIS2_PLACEMENT_3D ( 'NONE', #136, #237, #172 ) ;
#24 = VECTOR ( 'NONE', #116, 1000.000000000000000 ) ;
#25 = CARTESIAN_POINT ( 'NONE',  ( 8.000000000000000000, 9.797174393178825657E-16, 315.0000000000000000 ) ) ;
#26 = LINE ( 'NONE', #73, #131 ) ;
#27 = CARTESIAN_POINT ( 'NONE',  ( 0.000000000000000000, 0.000000000000000000, 7.000000000000000000 ) ) ;
#28 = ADVANCED_BREP_SHAPE_REPRESENTATION ( '6197', ( #66, #70 ), #174 ) ;
#29 = APPROVAL_DATE_TIME ( #17, #53 ) ;
#30 = MECHANICAL_CONTEXT ( 'NONE', #224, 'mechanical' ) ;
#31 = ORIENTED_EDGE ( 'NONE', *, *, #80, .T. ) ;
#32 = APPLICATION_CONTEXT ( 'configuration controlled 3d designs of mechanical parts and assemblies' ) ;
#33 = ADVANCED_FACE ( 'NONE', ( #113 ), #209, .T. ) ;
#34 = DATE_AND_TIME ( #54, #229 ) ;
#35 = ORIENTED_EDGE ( 'NONE', *, *, #7, .F. ) ;
#36 = ORIENTED_EDGE ( 'NONE', *, *, #140, .F. ) ;
#37 = DATE_AND_TIME ( #39, #89 ) ;
#38 = LINE ( 'NONE', #205, #69 ) ;
#39 = CALENDAR_DATE ( 2023, 12, 2 ) ;
#40 = COORDINATED_UNIVERSAL_TIME_OFFSET ( 1, 0, .AHEAD. ) ;
#41 = DIRECTION ( 'NONE',  ( 1.000000000000000000, 0.000000000000000000, 0.000000000000000000 ) ) ;
#42 = CIRCLE ( 'NONE', #59, 11.00000000000000000 ) ;
#43 = DIRECTION ( 'NONE',  ( -0.000000000000000000, -0.000000000000000000, -1.000000000000000000 ) ) ;
#44 = AXIS2_PLACEMENT_3D ( 'NONE', #68, #43, #253 ) ;
#45 = CC_DESIGN_PERSON_AND_ORGANIZATION_ASSIGNMENT ( #14, #139, ( #93 ) ) ;
#46 = CARTESIAN_POINT ( 'NONE',  ( 11.00000000000000000, 1.347111479062088405E-15, 7.000000000000000000 ) ) ;
#47 = DIRECTION ( 'NONE',  ( 0.000000000000000000, 0.000000000000000000, 1.000000000000000000 ) ) ;
#48 = DIRECTION ( 'NONE',  ( 0.000000000000000000, 0.000000000000000000, 1.000000000000000000 ) ) ;
#49 = DATE_TIME_ROLE ( 'creation_date' ) ;
#50 = VERTEX_POINT ( 'NONE', #211 ) ;
#51 = AXIS2_PLACEMENT_3D ( 'NONE', #158, #255, #192 ) ;
#52 = ORIENTED_EDGE ( 'NONE', *, *, #239, .F. ) ;
#53 = APPROVAL ( #1, 'NEURÈENÝ' ) ;
#54 = CALENDAR_DATE ( 2023, 12, 2 ) ;
#55 = DIRECTION ( 'NONE',  ( 0.000000000000000000, 0.000000000000000000, 1.000000000000000000 ) ) ;
#56 = ORIENTED_EDGE ( 'NONE', *, *, #7, .T. ) ;
#57 = PERSON_AND_ORGANIZATION ( #189, #16 ) ;
#58 = EDGE_LOOP ( 'NONE', ( #36, #228, #31, #15 ) ) ;
#59 = AXIS2_PLACEMENT_3D ( 'NONE', #219, #90, #117 ) ;
#60 = DATE_AND_TIME ( #112, #19 ) ;
#61 = CARTESIAN_POINT ( 'NONE',  ( 0.000000000000000000, 0.000000000000000000, 315.0000000000000000 ) ) ;
#62 = SECURITY_CLASSIFICATION ( '', '', #86 ) ;
#63 = CARTESIAN_POINT ( 'NONE',  ( 0.000000000000000000, 0.000000000000000000, 0.000000000000000000 ) ) ;
#64 = CYLINDRICAL_SURFACE ( 'NONE', #98, 8.000000000000000000 ) ;
#65 = DIRECTION ( 'NONE',  ( -0.000000000000000000, -0.000000000000000000, -1.000000000000000000 ) ) ;
#66 = MANIFOLD_SOLID_BREP ( 'Pøidat vysunutím3', #156 ) ;
#67 = ADVANCED_FACE ( 'NONE', ( #247 ), #64, .T. ) ;
#68 = CARTESIAN_POINT ( 'NONE',  ( 0.000000000000000000, 0.000000000000000000, 315.0000000000000000 ) ) ;
#69 = VECTOR ( 'NONE', #65, 1000.000000000000000 ) ;
#70 = AXIS2_PLACEMENT_3D ( 'NONE', #119, #101, #243 ) ;
#71 = PLANE ( 'NONE',  #23 ) ;
#72 = LOCAL_TIME ( 11, 39, 26.00000000000000000, #75 ) ;
#73 = CARTESIAN_POINT ( 'NONE',  ( -11.00000000000000000, 0.000000000000000000, 7.000000000000000000 ) ) ;
#74 = APPROVAL_PERSON_ORGANIZATION ( #57, #53, #3 ) ;
#75 = COORDINATED_UNIVERSAL_TIME_OFFSET ( 1, 0, .AHEAD. ) ;
#76 = EDGE_CURVE ( 'NONE', #176, #50, #162, .T. ) ;
#77 = VERTEX_POINT ( 'NONE', #188 ) ;
#78 = ORIENTED_EDGE ( 'NONE', *, *, #207, .T. ) ;
#79 = APPROVAL_DATE_TIME ( #34, #111 ) ;
#80 = EDGE_CURVE ( 'NONE', #102, #50, #38, .T. ) ;
#81 =( NAMED_UNIT ( * ) PLANE_ANGLE_UNIT ( ) SI_UNIT ( $, .RADIAN. ) );
#82 = ORIENTED_EDGE ( 'NONE', *, *, #76, .T. ) ;
#83 = CARTESIAN_POINT ( 'NONE',  ( 0.000000000000000000, 0.000000000000000000, 7.000000000000000000 ) ) ;
#84 = AXIS2_PLACEMENT_3D ( 'NONE', #178, #55, #99 ) ;
#85 = LOCAL_TIME ( 11, 39, 26.00000000000000000, #159 ) ;
#86 = SECURITY_CLASSIFICATION_LEVEL ( 'unclassified' ) ;
#87 = EDGE_CURVE ( 'NONE', #77, #102, #222, .T. ) ;
#88 = DIRECTION ( 'NONE',  ( 1.000000000000000000, 0.000000000000000000, 0.000000000000000000 ) ) ;
#89 = LOCAL_TIME ( 11, 39, 26.00000000000000000, #166 ) ;
#90 = DIRECTION ( 'NONE',  ( 0.000000000000000000, 0.000000000000000000, 1.000000000000000000 ) ) ;
#91 = AXIS2_PLACEMENT_3D ( 'NONE', #10, #97, #92 ) ;
#92 = DIRECTION ( 'NONE',  ( 1.000000000000000000, 0.000000000000000000, -0.000000000000000000 ) ) ;
#93 = PRODUCT ( '6197', '6197', '', ( #30 ) ) ;
#94 = APPROVAL_PERSON_ORGANIZATION ( #225, #111, #2 ) ;
#95 = DIRECTION ( 'NONE',  ( 0.000000000000000000, 0.000000000000000000, 1.000000000000000000 ) ) ;
#96 = APPROVAL ( #230, 'NEURÈENÝ' ) ;
#97 = DIRECTION ( 'NONE',  ( 0.000000000000000000, 0.000000000000000000, 1.000000000000000000 ) ) ;
#98 = AXIS2_PLACEMENT_3D ( 'NONE', #61, #151, #233 ) ;
#99 = DIRECTION ( 'NONE',  ( 1.000000000000000000, 0.000000000000000000, -0.000000000000000000 ) ) ;
#100 = CC_DESIGN_DATE_AND_TIME_ASSIGNMENT ( #226, #49, ( #227 ) ) ;
#101 = DIRECTION ( 'NONE',  ( 0.000000000000000000, 0.000000000000000000, 1.000000000000000000 ) ) ;
#102 = VERTEX_POINT ( 'NONE', #110 ) ;
#103 = APPROVAL_STATUS ( 'not_yet_approved' ) ;
#104 = ORIENTED_EDGE ( 'NONE', *, *, #239, .T. ) ;
#105 = CIRCLE ( 'NONE', #143, 11.00000000000000000 ) ;
#106 = ADVANCED_FACE ( 'NONE', ( #9 ), #173, .T. ) ;
#107 = FACE_OUTER_BOUND ( 'NONE', #138, .T. ) ;
#108 = EDGE_LOOP ( 'NONE', ( #186, #121 ) ) ;
#109 = AXIS2_PLACEMENT_3D ( 'NONE', #146, #6, #169 ) ;
#110 = CARTESIAN_POINT ( 'NONE',  ( -8.000000000000000000, 0.000000000000000000, 315.0000000000000000 ) ) ;
#111 = APPROVAL ( #103, 'NEURÈENÝ' ) ;
#112 = CALENDAR_DATE ( 2023, 12, 2 ) ;
#113 = FACE_OUTER_BOUND ( 'NONE', #182, .T. ) ;
#114 = EDGE_CURVE ( 'NONE', #242, #198, #251, .T. ) ;
#115 = FACE_OUTER_BOUND ( 'NONE', #180, .T. ) ;
#116 = DIRECTION ( 'NONE',  ( -0.000000000000000000, -0.000000000000000000, -1.000000000000000000 ) ) ;
#117 = DIRECTION ( 'NONE',  ( 1.000000000000000000, 0.000000000000000000, 0.000000000000000000 ) ) ;
#118 = CARTESIAN_POINT ( 'NONE',  ( 11.00000000000000000, 1.347111479062088405E-15, 7.000000000000000000 ) ) ;
#119 = CARTESIAN_POINT ( 'NONE',  ( 0.000000000000000000, 0.000000000000000000, 0.000000000000000000 ) ) ;
#120 = ADVANCED_FACE ( 'NONE', ( #115 ), #133, .T. ) ;
#121 = ORIENTED_EDGE ( 'NONE', *, *, #76, .F. ) ;
#122 = CC_DESIGN_APPROVAL ( #96, ( #62 ) ) ;
#123 = ORIENTED_EDGE ( 'NONE', *, *, #114, .F. ) ;
#124 = PERSON_AND_ORGANIZATION ( #189, #16 ) ;
#125 = ORIENTED_EDGE ( 'NONE', *, *, #114, .T. ) ;
#126 = ORIENTED_EDGE ( 'NONE', *, *, #164, .T. ) ;
#127 = PERSON_AND_ORGANIZATION ( #189, #16 ) ;
#128 = EDGE_CURVE ( 'NONE', #198, #242, #105, .T. ) ;
#129 = AXIS2_PLACEMENT_3D ( 'NONE', #83, #232, #41 ) ;
#130 = CARTESIAN_POINT ( 'NONE',  ( 0.000000000000000000, 0.000000000000000000, 315.0000000000000000 ) ) ;
#131 = VECTOR ( 'NONE', #11, 1000.000000000000000 ) ;
#132 = CARTESIAN_POINT ( 'NONE',  ( -11.00000000000000000, 0.000000000000000000, 7.000000000000000000 ) ) ;
#133 = PLANE ( 'NONE',  #91 ) ;
#134 = ADVANCED_FACE ( 'NONE', ( #252, #236 ), #71, .T. ) ;
#135 = LINE ( 'NONE', #118, #195 ) ;
#136 = CARTESIAN_POINT ( 'NONE',  ( 0.000000000000000000, 0.000000000000000000, 7.000000000000000000 ) ) ;
#137 =( LENGTH_UNIT ( ) NAMED_UNIT ( * ) SI_UNIT ( .MILLI., .METRE. ) );
#138 = EDGE_LOOP ( 'NONE', ( #35, #4 ) ) ;
#139 = PERSON_AND_ORGANIZATION_ROLE ( 'design_owner' ) ;
#140 = EDGE_CURVE ( 'NONE', #77, #176, #175, .T. ) ;
#141 = CIRCLE ( 'NONE', #212, 8.000000000000000000 ) ;
#142 = EDGE_LOOP ( 'NONE', ( #125, #160 ) ) ;
#143 = AXIS2_PLACEMENT_3D ( 'NONE', #216, #48, #155 ) ;
#144 = PERSON_AND_ORGANIZATION_ROLE ( 'classification_officer' ) ;
#145 = CC_DESIGN_PERSON_AND_ORGANIZATION_ASSIGNMENT ( #193, #201, ( #227 ) ) ;
#146 = CARTESIAN_POINT ( 'NONE',  ( 0.000000000000000000, 0.000000000000000000, 7.000000000000000000 ) ) ;
#147 = PERSON_AND_ORGANIZATION ( #189, #16 ) ;
#148 = DIRECTION ( 'NONE',  ( 0.000000000000000000, 0.000000000000000000, 1.000000000000000000 ) ) ;
#149 = DIRECTION ( 'NONE',  ( 1.000000000000000000, 0.000000000000000000, 0.000000000000000000 ) ) ;
#150 = CC_DESIGN_PERSON_AND_ORGANIZATION_ASSIGNMENT ( #124, #199, ( #249 ) ) ;
#151 = DIRECTION ( 'NONE',  ( -0.000000000000000000, -0.000000000000000000, -1.000000000000000000 ) ) ;
#152 = DIRECTION ( 'NONE',  ( 0.000000000000000000, 0.000000000000000000, 1.000000000000000000 ) ) ;
#153 = PRODUCT_RELATED_PRODUCT_CATEGORY ( 'detail', '', ( #93 ) ) ;
#154 = CC_DESIGN_SECURITY_CLASSIFICATION ( #62, ( #249 ) ) ;
#155 = DIRECTION ( 'NONE',  ( 1.000000000000000000, 0.000000000000000000, 0.000000000000000000 ) ) ;
#156 = CLOSED_SHELL ( 'NONE', ( #197, #106, #33, #134, #254, #67, #120 ) ) ;
#157 = DIRECTION ( 'NONE',  ( 1.000000000000000000, 0.000000000000000000, 0.000000000000000000 ) ) ;
#158 = CARTESIAN_POINT ( 'NONE',  ( 0.000000000000000000, 0.000000000000000000, 7.000000000000000000 ) ) ;
#159 = COORDINATED_UNIVERSAL_TIME_OFFSET ( 1, 0, .AHEAD. ) ;
#160 = ORIENTED_EDGE ( 'NONE', *, *, #128, .T. ) ;
#161 = PLANE ( 'NONE',  #84 ) ;
#162 = CIRCLE ( 'NONE', #129, 8.000000000000000000 ) ;
#163 = COORDINATED_UNIVERSAL_TIME_OFFSET ( 1, 0, .AHEAD. ) ;
#164 = EDGE_CURVE ( 'NONE', #5, #244, #42, .T. ) ;
#165 = DIRECTION ( 'NONE',  ( 0.000000000000000000, 0.000000000000000000, 1.000000000000000000 ) ) ;
#166 = COORDINATED_UNIVERSAL_TIME_OFFSET ( 1, 0, .AHEAD. ) ;
#167 = EDGE_LOOP ( 'NONE', ( #231, #200, #82, #196 ) ) ;
#168 = CARTESIAN_POINT ( 'NONE',  ( 0.000000000000000000, 0.000000000000000000, 7.000000000000000000 ) ) ;
#169 = DIRECTION ( 'NONE',  ( -1.000000000000000000, 0.000000000000000000, 0.000000000000000000 ) ) ;
#170 = PRODUCT_DEFINITION_SHAPE ( 'NONE', 'NONE',  #227 ) ;
#171 = APPROVAL_PERSON_ORGANIZATION ( #127, #96, #204 ) ;
#172 = DIRECTION ( 'NONE',  ( 1.000000000000000000, 0.000000000000000000, -0.000000000000000000 ) ) ;
#173 = CYLINDRICAL_SURFACE ( 'NONE', #51, 11.00000000000000000 ) ;
#174 =( GEOMETRIC_REPRESENTATION_CONTEXT ( 3 ) GLOBAL_UNCERTAINTY_ASSIGNED_CONTEXT ( ( #177 ) ) GLOBAL_UNIT_ASSIGNED_CONTEXT ( ( #137, #81, #18 ) ) REPRESENTATION_CONTEXT ( 'NONE', 'WORKASPACE' ) );
#175 = LINE ( 'NONE', #25, #24 ) ;
#176 = VERTEX_POINT ( 'NONE', #191 ) ;
#177 = UNCERTAINTY_MEASURE_WITH_UNIT (LENGTH_MEASURE( 1.000000000000000082E-05 ), #137, 'distance_accuracy_value', 'NONE');
#178 = CARTESIAN_POINT ( 'NONE',  ( 0.000000000000000000, 0.000000000000000000, 0.000000000000000000 ) ) ;
#179 = AXIS2_PLACEMENT_3D ( 'NONE', #130, #165, #22 ) ;
#180 = EDGE_LOOP ( 'NONE', ( #203, #240 ) ) ;
#181 = APPLICATION_PROTOCOL_DEFINITION ( 'international standard', 'config_control_design', 1994, #32 ) ;
#182 = EDGE_LOOP ( 'NONE', ( #52, #123, #78, #56 ) ) ;
#183 = CIRCLE ( 'NONE', #217, 11.00000000000000000 ) ;
#184 = PERSON_AND_ORGANIZATION ( #189, #16 ) ;
#185 = CC_DESIGN_DATE_AND_TIME_ASSIGNMENT ( #60, #187, ( #62 ) ) ;
#186 = ORIENTED_EDGE ( 'NONE', *, *, #13, .F. ) ;
#187 = DATE_TIME_ROLE ( 'classification_date' ) ;
#188 = CARTESIAN_POINT ( 'NONE',  ( 8.000000000000000000, 9.797174393178825657E-16, 315.0000000000000000 ) ) ;
#189 = PERSON ( 'NEURÈENÝ', 'NEURÈENÝ', 'NEURÈENÝ', ('NEURÈENÝ'), ('NEURÈENÝ'), ('NEURÈENÝ') ) ;
#190 = CARTESIAN_POINT ( 'NONE',  ( 0.000000000000000000, 0.000000000000000000, 315.0000000000000000 ) ) ;
#191 = CARTESIAN_POINT ( 'NONE',  ( 8.000000000000000000, 9.797174393178825657E-16, 7.000000000000000000 ) ) ;
#192 = DIRECTION ( 'NONE',  ( -1.000000000000000000, 0.000000000000000000, 0.000000000000000000 ) ) ;
#193 = PERSON_AND_ORGANIZATION ( #189, #16 ) ;
#194 = AXIS2_PLACEMENT_3D ( 'NONE', #190, #95, #12 ) ;
#195 = VECTOR ( 'NONE', #234, 1000.000000000000000 ) ;
#196 = ORIENTED_EDGE ( 'NONE', *, *, #80, .F. ) ;
#197 = ADVANCED_FACE ( 'NONE', ( #218 ), #250, .T. ) ;
#198 = VERTEX_POINT ( 'NONE', #46 ) ;
#199 = PERSON_AND_ORGANIZATION_ROLE ( 'creator' ) ;
#200 = ORIENTED_EDGE ( 'NONE', *, *, #140, .T. ) ;
#201 = PERSON_AND_ORGANIZATION_ROLE ( 'creator' ) ;
#202 = EDGE_LOOP ( 'NONE', ( #248, #104, #126, #20 ) ) ;
#203 = ORIENTED_EDGE ( 'NONE', *, *, #213, .T. ) ;
#204 = APPROVAL_ROLE ( '' ) ;
#205 = CARTESIAN_POINT ( 'NONE',  ( -8.000000000000000000, 0.000000000000000000, 315.0000000000000000 ) ) ;
#206 = AXIS2_PLACEMENT_3D ( 'NONE', #27, #47, #157 ) ;
#207 = EDGE_CURVE ( 'NONE', #242, #244, #26, .T. ) ;
#208 = PERSON_AND_ORGANIZATION_ROLE ( 'design_supplier' ) ;
#209 = CYLINDRICAL_SURFACE ( 'NONE', #109, 11.00000000000000000 ) ;
#210 = APPROVAL_DATE_TIME ( #37, #96 ) ;
#211 = CARTESIAN_POINT ( 'NONE',  ( -8.000000000000000000, 0.000000000000000000, 7.000000000000000000 ) ) ;
#212 = AXIS2_PLACEMENT_3D ( 'NONE', #168, #152, #149 ) ;
#213 = EDGE_CURVE ( 'NONE', #102, #77, #214, .T. ) ;
#214 = CIRCLE ( 'NONE', #194, 8.000000000000000000 ) ;
#215 = CARTESIAN_POINT ( 'NONE',  ( -11.00000000000000000, 0.000000000000000000, 0.000000000000000000 ) ) ;
#216 = CARTESIAN_POINT ( 'NONE',  ( 0.000000000000000000, 0.000000000000000000, 7.000000000000000000 ) ) ;
#217 = AXIS2_PLACEMENT_3D ( 'NONE', #63, #148, #88 ) ;
#218 = FACE_OUTER_BOUND ( 'NONE', #167, .T. ) ;
#219 = CARTESIAN_POINT ( 'NONE',  ( 0.000000000000000000, 0.000000000000000000, 0.000000000000000000 ) ) ;
#220 = CC_DESIGN_APPROVAL ( #53, ( #227 ) ) ;
#221 = CALENDAR_DATE ( 2023, 12, 2 ) ;
#222 = CIRCLE ( 'NONE', #179, 8.000000000000000000 ) ;
#223 = CC_DESIGN_PERSON_AND_ORGANIZATION_ASSIGNMENT ( #147, #208, ( #249 ) ) ;
#224 = APPLICATION_CONTEXT ( 'configuration controlled 3d designs of mechanical parts and assemblies' ) ;
#225 = PERSON_AND_ORGANIZATION ( #189, #16 ) ;
#226 = DATE_AND_TIME ( #238, #85 ) ;
#227 = PRODUCT_DEFINITION ( 'NEZNÁMÝ', '', #249, #8 ) ;
#228 = ORIENTED_EDGE ( 'NONE', *, *, #213, .F. ) ;
#229 = LOCAL_TIME ( 11, 39, 26.00000000000000000, #163 ) ;
#230 = APPROVAL_STATUS ( 'not_yet_approved' ) ;
#231 = ORIENTED_EDGE ( 'NONE', *, *, #87, .F. ) ;
#232 = DIRECTION ( 'NONE',  ( 0.000000000000000000, 0.000000000000000000, 1.000000000000000000 ) ) ;
#233 = DIRECTION ( 'NONE',  ( -1.000000000000000000, 0.000000000000000000, 0.000000000000000000 ) ) ;
#234 = DIRECTION ( 'NONE',  ( -0.000000000000000000, -0.000000000000000000, -1.000000000000000000 ) ) ;
#235 = CC_DESIGN_APPROVAL ( #111, ( #249 ) ) ;
#236 = FACE_OUTER_BOUND ( 'NONE', #142, .T. ) ;
#237 = DIRECTION ( 'NONE',  ( 0.000000000000000000, 0.000000000000000000, 1.000000000000000000 ) ) ;
#238 = CALENDAR_DATE ( 2023, 12, 2 ) ;
#239 = EDGE_CURVE ( 'NONE', #198, #5, #135, .T. ) ;
#240 = ORIENTED_EDGE ( 'NONE', *, *, #87, .T. ) ;
#241 = APPLICATION_PROTOCOL_DEFINITION ( 'international standard', 'config_control_design', 1994, #224 ) ;
#242 = VERTEX_POINT ( 'NONE', #132 ) ;
#243 = DIRECTION ( 'NONE',  ( 1.000000000000000000, 0.000000000000000000, 0.000000000000000000 ) ) ;
#244 = VERTEX_POINT ( 'NONE', #215 ) ;
#245 = CARTESIAN_POINT ( 'NONE',  ( 11.00000000000000000, 1.347111479062088405E-15, 0.000000000000000000 ) ) ;
#246 = SHAPE_DEFINITION_REPRESENTATION ( #170, #28 ) ;
#247 = FACE_OUTER_BOUND ( 'NONE', #58, .T. ) ;
#248 = ORIENTED_EDGE ( 'NONE', *, *, #128, .F. ) ;
#249 = PRODUCT_DEFINITION_FORMATION_WITH_SPECIFIED_SOURCE ( 'LIBOVOLNÝ', '', #93, .NOT_KNOWN. ) ;
#250 = CYLINDRICAL_SURFACE ( 'NONE', #44, 8.000000000000000000 ) ;
#251 = CIRCLE ( 'NONE', #206, 11.00000000000000000 ) ;
#252 = FACE_BOUND ( 'NONE', #108, .T. ) ;
#253 = DIRECTION ( 'NONE',  ( -1.000000000000000000, 0.000000000000000000, 0.000000000000000000 ) ) ;
#254 = ADVANCED_FACE ( 'NONE', ( #107 ), #161, .F. ) ;
#255 = DIRECTION ( 'NONE',  ( -0.000000000000000000, -0.000000000000000000, -1.000000000000000000 ) ) ;
ENDSEC;
END-ISO-10303-21;
