ISO-10303-21;
HEADER;
FILE_DESCRIPTION (( 'STEP AP203' ),
    '1' );
FILE_NAME ('46cf.STEP',
    '2022-07-07T12:18:52',
    ( '' ),
    ( '' ),
    'SwSTEP 2.0',
    'SolidWorks 2019',
    '' );
FILE_SCHEMA (( 'CONFIG_CONTROL_DESIGN' ));
ENDSEC;

DATA;
#1 = DIRECTION ( 'NONE',  ( -0.000000000000000000, -0.000000000000000000, -1.000000000000000000 ) ) ;
#2 = EDGE_CURVE ( 'NONE', #242, #141, #76, .T. ) ;
#3 = ORIENTED_EDGE ( 'NONE', *, *, #7, .F. ) ;
#4 = ORIENTED_EDGE ( 'NONE', *, *, #128, .F. ) ;
#5 = AXIS2_PLACEMENT_3D ( 'NONE', #177, #8, #37 ) ;
#6 = CARTESIAN_POINT ( 'NONE',  ( 0.000000000000000000, 0.000000000000000000, 7.000000000000000000 ) ) ;
#7 = EDGE_CURVE ( 'NONE', #20, #141, #120, .T. ) ;
#8 = DIRECTION ( 'NONE',  ( -0.000000000000000000, -0.000000000000000000, -1.000000000000000000 ) ) ;
#9 = CARTESIAN_POINT ( 'NONE',  ( 0.000000000000000000, 0.000000000000000000, 7.000000000000000000 ) ) ;
#10 = CIRCLE ( 'NONE', #61, 0.2000000000000005107 ) ;
#11 = DIRECTION ( 'NONE',  ( 1.000000000000000000, 0.000000000000000000, -0.000000000000000000 ) ) ;
#12 = DIRECTION ( 'NONE',  ( -1.000000000000000000, 0.000000000000000000, 0.000000000000000000 ) ) ;
#13 = CC_DESIGN_PERSON_AND_ORGANIZATION_ASSIGNMENT ( #91, #208, ( #126 ) ) ;
#14 = CARTESIAN_POINT ( 'NONE',  ( 0.000000000000000000, 0.000000000000000000, 507.0000000000000000 ) ) ;
#15 = PRODUCT_DEFINITION_SHAPE ( 'NONE', 'NONE',  #82 ) ;
#16 = PERSON_AND_ORGANIZATION ( #143, #87 ) ;
#17 = CIRCLE ( 'NONE', #197, 9.000000000000000000 ) ;
#18 = EDGE_CURVE ( 'NONE', #55, #242, #74, .T. ) ;
#19 = PERSON_AND_ORGANIZATION ( #143, #87 ) ;
#20 = VERTEX_POINT ( 'NONE', #101 ) ;
#21 = AXIS2_PLACEMENT_3D ( 'NONE', #6, #1, #306 ) ;
#22 = DIRECTION ( 'NONE',  ( 0.000000000000000000, 0.000000000000000000, 1.000000000000000000 ) ) ;
#23 = ADVANCED_FACE ( 'NONE', ( #167 ), #175, .F. ) ;
#24 = ORIENTED_EDGE ( 'NONE', *, *, #258, .F. ) ;
#25 = ORIENTED_EDGE ( 'NONE', *, *, #258, .T. ) ;
#26 = AXIS2_PLACEMENT_3D ( 'NONE', #78, #122, #171 ) ;
#27 = LOCAL_TIME ( 14, 18, 52.00000000000000000, #72 ) ;
#28 = DIRECTION ( 'NONE',  ( 1.000000000000000000, 0.000000000000000000, 0.000000000000000000 ) ) ;
#29 = ORIENTED_EDGE ( 'NONE', *, *, #224, .F. ) ;
#30 = ORIENTED_EDGE ( 'NONE', *, *, #144, .F. ) ;
#31 = VERTEX_POINT ( 'NONE', #230 ) ;
#32 = DIRECTION ( 'NONE',  ( -0.000000000000000000, -0.000000000000000000, -1.000000000000000000 ) ) ;
#33 = CIRCLE ( 'NONE', #79, 12.00000000000000178 ) ;
#34 = PRODUCT_DEFINITION_FORMATION_WITH_SPECIFIED_SOURCE ( 'LIBOVOLNÝ', '', #66, .NOT_KNOWN. ) ;
#35 = CARTESIAN_POINT ( 'NONE',  ( 0.000000000000000000, 0.000000000000000000, 7.000000000000000000 ) ) ;
#36 = CARTESIAN_POINT ( 'NONE',  ( -12.00000000000000178, 0.000000000000000000, 7.000000000000000000 ) ) ;
#37 = DIRECTION ( 'NONE',  ( -1.000000000000000000, 0.000000000000000000, 0.000000000000000000 ) ) ;
#38 = APPROVAL_PERSON_ORGANIZATION ( #137, #298, #68 ) ;
#39 = MANIFOLD_SOLID_BREP ( 'Zaoblit1', #130 ) ;
#40 = CC_DESIGN_PERSON_AND_ORGANIZATION_ASSIGNMENT ( #16, #281, ( #82 ) ) ;
#41 = DIRECTION ( 'NONE',  ( 1.000000000000000000, 0.000000000000000000, 0.000000000000000000 ) ) ;
#42 = DATE_AND_TIME ( #229, #277 ) ;
#43 = CALENDAR_DATE ( 2022, 7, 7 ) ;
#44 = AXIS2_PLACEMENT_3D ( 'NONE', #84, #294, #154 ) ;
#45 = APPLICATION_PROTOCOL_DEFINITION ( 'international standard', 'config_control_design', 1994, #220 ) ;
#46 = DIRECTION ( 'NONE',  ( -0.000000000000000000, -0.000000000000000000, -1.000000000000000000 ) ) ;
#47 = DIRECTION ( 'NONE',  ( 0.000000000000000000, 0.000000000000000000, 1.000000000000000000 ) ) ;
#48 = PLANE ( 'NONE',  #161 ) ;
#49 = ORIENTED_EDGE ( 'NONE', *, *, #190, .F. ) ;
#50 = DATE_TIME_ROLE ( 'classification_date' ) ;
#51 = CC_DESIGN_APPROVAL ( #159, ( #34 ) ) ;
#52 = ADVANCED_FACE ( 'NONE', ( #217 ), #48, .T. ) ;
#53 = ADVANCED_BREP_SHAPE_REPRESENTATION ( '46cf', ( #39, #249 ), #252 ) ;
#54 = ORIENTED_EDGE ( 'NONE', *, *, #286, .F. ) ;
#55 = VERTEX_POINT ( 'NONE', #172 ) ;
#56 = APPROVAL_PERSON_ORGANIZATION ( #210, #272, #305 ) ;
#57 = DIRECTION ( 'NONE',  ( 0.000000000000000000, 0.000000000000000000, 1.000000000000000000 ) ) ;
#58 = ORIENTED_EDGE ( 'NONE', *, *, #7, .T. ) ;
#59 = CARTESIAN_POINT ( 'NONE',  ( 9.000000000000000000, 1.102182119232617714E-15, 7.199999999999984190 ) ) ;
#60 = CARTESIAN_POINT ( 'NONE',  ( 0.000000000000000000, 0.000000000000000000, 7.199999999999984190 ) ) ;
#61 = AXIS2_PLACEMENT_3D ( 'NONE', #108, #292, #129 ) ;
#62 = CARTESIAN_POINT ( 'NONE',  ( -9.000000000000000000, 0.000000000000000000, 7.199999999999984190 ) ) ;
#63 = FACE_OUTER_BOUND ( 'NONE', #216, .T. ) ;
#64 = DIRECTION ( 'NONE',  ( -0.000000000000000000, -0.000000000000000000, -1.000000000000000000 ) ) ;
#65 = AXIS2_PLACEMENT_3D ( 'NONE', #297, #64, #12 ) ;
#66 = PRODUCT ( '46cf', '46cf', '', ( #204 ) ) ;
#67 = APPLICATION_PROTOCOL_DEFINITION ( 'international standard', 'config_control_design', 1994, #164 ) ;
#68 = APPROVAL_ROLE ( '' ) ;
#69 = CIRCLE ( 'NONE', #118, 9.000000000000000000 ) ;
#70 = APPROVAL_STATUS ( 'not_yet_approved' ) ;
#71 = EDGE_LOOP ( 'NONE', ( #93, #123, #235, #265 ) ) ;
#72 = COORDINATED_UNIVERSAL_TIME_OFFSET ( 1, 0, .AHEAD. ) ;
#73 = CC_DESIGN_PERSON_AND_ORGANIZATION_ASSIGNMENT ( #19, #112, ( #34 ) ) ;
#74 = LINE ( 'NONE', #185, #92 ) ;
#75 = ORIENTED_EDGE ( 'NONE', *, *, #88, .T. ) ;
#76 = CIRCLE ( 'NONE', #139, 9.000000000000000000 ) ;
#77 = VERTEX_POINT ( 'NONE', #138 ) ;
#78 = CARTESIAN_POINT ( 'NONE',  ( 9.199999999999999289, 0.000000000000000000, 7.199999999999984190 ) ) ;
#79 = AXIS2_PLACEMENT_3D ( 'NONE', #194, #80, #268 ) ;
#80 = DIRECTION ( 'NONE',  ( 0.000000000000000000, 0.000000000000000000, 1.000000000000000000 ) ) ;
#81 = LINE ( 'NONE', #255, #289 ) ;
#82 = PRODUCT_DEFINITION ( 'NEZNÁMÝ', '', #34, #280 ) ;
#83 = PLANE ( 'NONE',  #212 ) ;
#84 = CARTESIAN_POINT ( 'NONE',  ( 0.000000000000000000, 0.000000000000000000, 7.000000000000000000 ) ) ;
#85 = CYLINDRICAL_SURFACE ( 'NONE', #5, 9.000000000000000000 ) ;
#86 = FACE_BOUND ( 'NONE', #165, .T. ) ;
#87 = ORGANIZATION ( 'NEURÈENÝ', 'NEURÈENÝ', '' ) ;
#88 = EDGE_CURVE ( 'NONE', #20, #55, #69, .T. ) ;
#89 = COORDINATED_UNIVERSAL_TIME_OFFSET ( 1, 0, .AHEAD. ) ;
#90 = COORDINATED_UNIVERSAL_TIME_OFFSET ( 1, 0, .AHEAD. ) ;
#91 = PERSON_AND_ORGANIZATION ( #143, #87 ) ;
#92 = VECTOR ( 'NONE', #266, 1000.000000000000000 ) ;
#93 = ORIENTED_EDGE ( 'NONE', *, *, #2, .F. ) ;
#94 = ADVANCED_FACE ( 'NONE', ( #288 ), #214, .T. ) ;
#95 = COORDINATED_UNIVERSAL_TIME_OFFSET ( 1, 0, .AHEAD. ) ;
#96 = EDGE_LOOP ( 'NONE', ( #142, #58, #189, #100 ) ) ;
#97 = EDGE_LOOP ( 'NONE', ( #3, #49, #303, #267 ) ) ;
#98 = AXIS2_PLACEMENT_3D ( 'NONE', #275, #199, #103 ) ;
#99 = EDGE_CURVE ( 'NONE', #141, #264, #232, .T. ) ;
#100 = ORIENTED_EDGE ( 'NONE', *, *, #18, .F. ) ;
#101 = CARTESIAN_POINT ( 'NONE',  ( 9.000000000000000000, 1.102182119232617714E-15, 507.0000000000000000 ) ) ;
#102 = ORIENTED_EDGE ( 'NONE', *, *, #179, .T. ) ;
#103 = DIRECTION ( 'NONE',  ( 1.000000000000000000, 0.000000000000000000, 0.000000000000000000 ) ) ;
#104 = LINE ( 'NONE', #173, #193 ) ;
#105 = CC_DESIGN_DATE_AND_TIME_ASSIGNMENT ( #160, #50, ( #126 ) ) ;
#106 = AXIS2_PLACEMENT_3D ( 'NONE', #270, #151, #131 ) ;
#107 = DIRECTION ( 'NONE',  ( -0.000000000000000000, -0.000000000000000000, -1.000000000000000000 ) ) ;
#108 = CARTESIAN_POINT ( 'NONE',  ( -9.199999999999999289, 1.126675055215564822E-15, 7.199999999999984190 ) ) ;
#109 = DIRECTION ( 'NONE',  ( 0.000000000000000000, 0.000000000000000000, 1.000000000000000000 ) ) ;
#110 = APPROVAL_STATUS ( 'not_yet_approved' ) ;
#111 =( NAMED_UNIT ( * ) PLANE_ANGLE_UNIT ( ) SI_UNIT ( $, .RADIAN. ) );
#112 = PERSON_AND_ORGANIZATION_ROLE ( 'creator' ) ;
#113 = DIRECTION ( 'NONE',  ( -0.000000000000000000, -0.000000000000000000, -1.000000000000000000 ) ) ;
#114 = SHAPE_DEFINITION_REPRESENTATION ( #15, #53 ) ;
#115 = VECTOR ( 'NONE', #113, 1000.000000000000000 ) ;
#116 = DIRECTION ( 'NONE',  ( 1.000000000000000000, 0.000000000000000000, -0.000000000000000000 ) ) ;
#117 = DATE_TIME_ROLE ( 'creation_date' ) ;
#118 = AXIS2_PLACEMENT_3D ( 'NONE', #140, #57, #28 ) ;
#119 = EDGE_LOOP ( 'NONE', ( #4, #24 ) ) ;
#120 = LINE ( 'NONE', #124, #115 ) ;
#121 = ORIENTED_EDGE ( 'NONE', *, *, #190, .T. ) ;
#122 = DIRECTION ( 'NONE',  ( 0.000000000000000000, -1.000000000000000000, 0.000000000000000000 ) ) ;
#123 = ORIENTED_EDGE ( 'NONE', *, *, #237, .T. ) ;
#124 = CARTESIAN_POINT ( 'NONE',  ( 9.000000000000000000, 1.102182119232617714E-15, 507.0000000000000000 ) ) ;
#125 = AXIS2_PLACEMENT_3D ( 'NONE', #132, #196, #221 ) ;
#126 = SECURITY_CLASSIFICATION ( '', '', #302 ) ;
#127 = FACE_OUTER_BOUND ( 'NONE', #119, .T. ) ;
#128 = EDGE_CURVE ( 'NONE', #147, #77, #33, .T. ) ;
#129 = DIRECTION ( 'NONE',  ( -1.000000000000000000, 1.224646799147353207E-16, 0.000000000000000000 ) ) ;
#130 = CLOSED_SHELL ( 'NONE', ( #155, #301, #94, #263, #162, #256, #253, #52, #23 ) ) ;
#131 = DIRECTION ( 'NONE',  ( -1.000000000000000000, 0.000000000000000000, 0.000000000000000000 ) ) ;
#132 = CARTESIAN_POINT ( 'NONE',  ( 0.000000000000000000, 0.000000000000000000, 7.199999999999984190 ) ) ;
#133 = DATE_AND_TIME ( #43, #27 ) ;
#134 = CALENDAR_DATE ( 2022, 7, 7 ) ;
#135 = PERSON_AND_ORGANIZATION ( #143, #87 ) ;
#136 = FACE_OUTER_BOUND ( 'NONE', #71, .T. ) ;
#137 = PERSON_AND_ORGANIZATION ( #143, #87 ) ;
#138 = CARTESIAN_POINT ( 'NONE',  ( 12.00000000000000178, 1.469576158976824144E-15, 0.000000000000000000 ) ) ;
#139 = AXIS2_PLACEMENT_3D ( 'NONE', #234, #22, #243 ) ;
#140 = CARTESIAN_POINT ( 'NONE',  ( 0.000000000000000000, 0.000000000000000000, 507.0000000000000000 ) ) ;
#141 = VERTEX_POINT ( 'NONE', #59 ) ;
#142 = ORIENTED_EDGE ( 'NONE', *, *, #88, .F. ) ;
#143 = PERSON ( 'NEURÈENÝ', 'NEURÈENÝ', 'NEURÈENÝ', ('NEURÈENÝ'), ('NEURÈENÝ'), ('NEURÈENÝ') ) ;
#144 = EDGE_CURVE ( 'NONE', #31, #264, #180, .T. ) ;
#145 = CIRCLE ( 'NONE', #44, 9.199999999999999289 ) ;
#146 = ORIENTED_EDGE ( 'NONE', *, *, #148, .T. ) ;
#147 = VERTEX_POINT ( 'NONE', #291 ) ;
#148 = EDGE_CURVE ( 'NONE', #287, #77, #81, .T. ) ;
#149 = ORIENTED_EDGE ( 'NONE', *, *, #148, .F. ) ;
#150 = CARTESIAN_POINT ( 'NONE',  ( 0.000000000000000000, 0.000000000000000000, 7.000000000000000000 ) ) ;
#151 = DIRECTION ( 'NONE',  ( -0.000000000000000000, -0.000000000000000000, -1.000000000000000000 ) ) ;
#152 = AXIS2_PLACEMENT_3D ( 'NONE', #150, #32, #195 ) ;
#153 = CARTESIAN_POINT ( 'NONE',  ( 9.199999999999999289, 0.000000000000000000, 6.999999999999992006 ) ) ;
#154 = DIRECTION ( 'NONE',  ( 1.000000000000000000, 0.000000000000000000, 0.000000000000000000 ) ) ;
#155 = ADVANCED_FACE ( 'NONE', ( #136 ), #304, .F. ) ;
#156 = DIRECTION ( 'NONE',  ( 1.000000000000000000, 0.000000000000000000, 0.000000000000000000 ) ) ;
#157 = AXIS2_PLACEMENT_3D ( 'NONE', #248, #273, #226 ) ;
#158 = DIRECTION ( 'NONE',  ( 0.000000000000000000, 0.000000000000000000, 1.000000000000000000 ) ) ;
#159 = APPROVAL ( #110, 'NEURÈENÝ' ) ;
#160 = DATE_AND_TIME ( #283, #271 ) ;
#161 = AXIS2_PLACEMENT_3D ( 'NONE', #284, #231, #116 ) ;
#162 = ADVANCED_FACE ( 'NONE', ( #86, #63 ), #225, .T. ) ;
#163 = APPROVAL_DATE_TIME ( #300, #272 ) ;
#164 = APPLICATION_CONTEXT ( 'configuration controlled 3d designs of mechanical parts and assemblies' ) ;
#165 = EDGE_LOOP ( 'NONE', ( #102, #170 ) ) ;
#166 = DATE_AND_TIME ( #181, #299 ) ;
#167 = FACE_OUTER_BOUND ( 'NONE', #238, .T. ) ;
#168 = CIRCLE ( 'NONE', #98, 12.00000000000000178 ) ;
#169 = CC_DESIGN_APPROVAL ( #298, ( #126 ) ) ;
#170 = ORIENTED_EDGE ( 'NONE', *, *, #144, .T. ) ;
#171 = DIRECTION ( 'NONE',  ( 0.000000000000000000, 0.000000000000000000, -1.000000000000000000 ) ) ;
#172 = CARTESIAN_POINT ( 'NONE',  ( -9.000000000000000000, 0.000000000000000000, 507.0000000000000000 ) ) ;
#173 = CARTESIAN_POINT ( 'NONE',  ( -12.00000000000000178, 0.000000000000000000, 7.000000000000000000 ) ) ;
#174 =( LENGTH_UNIT ( ) NAMED_UNIT ( * ) SI_UNIT ( .MILLI., .METRE. ) );
#175 = TOROIDAL_SURFACE ( 'NONE', #250, 9.199999999999999289, 0.2000000000000000111 ) ;
#176 = FACE_OUTER_BOUND ( 'NONE', #97, .T. ) ;
#177 = CARTESIAN_POINT ( 'NONE',  ( 0.000000000000000000, 0.000000000000000000, 507.0000000000000000 ) ) ;
#178 = CYLINDRICAL_SURFACE ( 'NONE', #65, 9.000000000000000000 ) ;
#179 = EDGE_CURVE ( 'NONE', #264, #31, #145, .T. ) ;
#180 = CIRCLE ( 'NONE', #152, 9.199999999999999289 ) ;
#181 = CALENDAR_DATE ( 2022, 7, 7 ) ;
#182 = COORDINATED_UNIVERSAL_TIME_OFFSET ( 1, 0, .AHEAD. ) ;
#183 = PERSON_AND_ORGANIZATION_ROLE ( 'design_owner' ) ;
#184 = CC_DESIGN_SECURITY_CLASSIFICATION ( #126, ( #34 ) ) ;
#185 = CARTESIAN_POINT ( 'NONE',  ( -9.000000000000000000, 0.000000000000000000, 507.0000000000000000 ) ) ;
#186 = PERSON_AND_ORGANIZATION_ROLE ( 'design_supplier' ) ;
#187 = ORIENTED_EDGE ( 'NONE', *, *, #205, .T. ) ;
#188 = AXIS2_PLACEMENT_3D ( 'NONE', #35, #158, #200 ) ;
#189 = ORIENTED_EDGE ( 'NONE', *, *, #286, .T. ) ;
#190 = EDGE_CURVE ( 'NONE', #55, #20, #17, .T. ) ;
#191 = CC_DESIGN_PERSON_AND_ORGANIZATION_ASSIGNMENT ( #254, #183, ( #66 ) ) ;
#192 = DIRECTION ( 'NONE',  ( 0.000000000000000000, 0.000000000000000000, 1.000000000000000000 ) ) ;
#193 = VECTOR ( 'NONE', #107, 1000.000000000000000 ) ;
#194 = CARTESIAN_POINT ( 'NONE',  ( 0.000000000000000000, 0.000000000000000000, 0.000000000000000000 ) ) ;
#195 = DIRECTION ( 'NONE',  ( 1.000000000000000000, 0.000000000000000000, 0.000000000000000000 ) ) ;
#196 = DIRECTION ( 'NONE',  ( 0.000000000000000000, 0.000000000000000000, 1.000000000000000000 ) ) ;
#197 = AXIS2_PLACEMENT_3D ( 'NONE', #14, #109, #41 ) ;
#198 = FACE_OUTER_BOUND ( 'NONE', #207, .T. ) ;
#199 = DIRECTION ( 'NONE',  ( 0.000000000000000000, 0.000000000000000000, 1.000000000000000000 ) ) ;
#200 = DIRECTION ( 'NONE',  ( 1.000000000000000000, 0.000000000000000000, 0.000000000000000000 ) ) ;
#201 = CIRCLE ( 'NONE', #276, 9.000000000000000000 ) ;
#202 = APPROVAL_PERSON_ORGANIZATION ( #135, #159, #203 ) ;
#203 = APPROVAL_ROLE ( '' ) ;
#204 = MECHANICAL_CONTEXT ( 'NONE', #164, 'mechanical' ) ;
#205 = EDGE_CURVE ( 'NONE', #287, #236, #239, .T. ) ;
#206 = PERSON_AND_ORGANIZATION ( #143, #87 ) ;
#207 = EDGE_LOOP ( 'NONE', ( #149, #261, #241, #307 ) ) ;
#208 = PERSON_AND_ORGANIZATION_ROLE ( 'classification_officer' ) ;
#209 = EDGE_LOOP ( 'NONE', ( #240, #146, #25, #29 ) ) ;
#210 = PERSON_AND_ORGANIZATION ( #143, #87 ) ;
#211 = ORIENTED_EDGE ( 'NONE', *, *, #246, .T. ) ;
#212 = AXIS2_PLACEMENT_3D ( 'NONE', #296, #222, #11 ) ;
#213 = EDGE_LOOP ( 'NONE', ( #121, #75 ) ) ;
#214 = CYLINDRICAL_SURFACE ( 'NONE', #21, 12.00000000000000178 ) ;
#215 = ORIENTED_EDGE ( 'NONE', *, *, #99, .T. ) ;
#216 = EDGE_LOOP ( 'NONE', ( #211, #187 ) ) ;
#217 = FACE_OUTER_BOUND ( 'NONE', #213, .T. ) ;
#218 = PRODUCT_RELATED_PRODUCT_CATEGORY ( 'detail', '', ( #66 ) ) ;
#219 = DIRECTION ( 'NONE',  ( 0.000000000000000000, 0.000000000000000000, 1.000000000000000000 ) ) ;
#220 = APPLICATION_CONTEXT ( 'configuration controlled 3d designs of mechanical parts and assemblies' ) ;
#221 = DIRECTION ( 'NONE',  ( 1.000000000000000000, 0.000000000000000000, 0.000000000000000000 ) ) ;
#222 = DIRECTION ( 'NONE',  ( 0.000000000000000000, 0.000000000000000000, 1.000000000000000000 ) ) ;
#223 = LOCAL_TIME ( 14, 18, 52.00000000000000000, #95 ) ;
#224 = EDGE_CURVE ( 'NONE', #236, #147, #104, .T. ) ;
#225 = PLANE ( 'NONE',  #293 ) ;
#226 = DIRECTION ( 'NONE',  ( 1.000000000000000000, 0.000000000000000000, 0.000000000000000000 ) ) ;
#227 = UNCERTAINTY_MEASURE_WITH_UNIT (LENGTH_MEASURE( 1.000000000000000082E-05 ), #174, 'distance_accuracy_value', 'NONE');
#228 = CIRCLE ( 'NONE', #157, 12.00000000000000178 ) ;
#229 = CALENDAR_DATE ( 2022, 7, 7 ) ;
#230 = CARTESIAN_POINT ( 'NONE',  ( -9.199999999999999289, 1.126675055215564822E-15, 6.999999999999992006 ) ) ;
#231 = DIRECTION ( 'NONE',  ( 0.000000000000000000, 0.000000000000000000, 1.000000000000000000 ) ) ;
#232 = CIRCLE ( 'NONE', #26, 0.1999999999999996503 ) ;
#233 = APPROVAL_STATUS ( 'not_yet_approved' ) ;
#234 = CARTESIAN_POINT ( 'NONE',  ( 0.000000000000000000, 0.000000000000000000, 7.199999999999984190 ) ) ;
#235 = ORIENTED_EDGE ( 'NONE', *, *, #179, .F. ) ;
#236 = VERTEX_POINT ( 'NONE', #36 ) ;
#237 = EDGE_CURVE ( 'NONE', #242, #31, #10, .T. ) ;
#238 = EDGE_LOOP ( 'NONE', ( #285, #54, #215, #30 ) ) ;
#239 = CIRCLE ( 'NONE', #188, 12.00000000000000178 ) ;
#240 = ORIENTED_EDGE ( 'NONE', *, *, #205, .F. ) ;
#241 = ORIENTED_EDGE ( 'NONE', *, *, #224, .T. ) ;
#242 = VERTEX_POINT ( 'NONE', #62 ) ;
#243 = DIRECTION ( 'NONE',  ( 1.000000000000000000, 0.000000000000000000, 0.000000000000000000 ) ) ;
#244 = FACE_OUTER_BOUND ( 'NONE', #96, .T. ) ;
#245 = CARTESIAN_POINT ( 'NONE',  ( 12.00000000000000178, 1.469576158976824144E-15, 7.000000000000000000 ) ) ;
#246 = EDGE_CURVE ( 'NONE', #236, #287, #228, .T. ) ;
#247 = DIRECTION ( 'NONE',  ( 1.000000000000000000, 0.000000000000000000, -0.000000000000000000 ) ) ;
#248 = CARTESIAN_POINT ( 'NONE',  ( 0.000000000000000000, 0.000000000000000000, 7.000000000000000000 ) ) ;
#249 = AXIS2_PLACEMENT_3D ( 'NONE', #251, #47, #282 ) ;
#250 = AXIS2_PLACEMENT_3D ( 'NONE', #259, #192, #290 ) ;
#251 = CARTESIAN_POINT ( 'NONE',  ( 0.000000000000000000, 0.000000000000000000, 0.000000000000000000 ) ) ;
#252 =( GEOMETRIC_REPRESENTATION_CONTEXT ( 3 ) GLOBAL_UNCERTAINTY_ASSIGNED_CONTEXT ( ( #227 ) ) GLOBAL_UNIT_ASSIGNED_CONTEXT ( ( #174, #111, #278 ) ) REPRESENTATION_CONTEXT ( 'NONE', 'WORKASPACE' ) );
#253 = ADVANCED_FACE ( 'NONE', ( #176 ), #178, .T. ) ;
#254 = PERSON_AND_ORGANIZATION ( #143, #87 ) ;
#255 = CARTESIAN_POINT ( 'NONE',  ( 12.00000000000000178, 1.469576158976824144E-15, 7.000000000000000000 ) ) ;
#256 = ADVANCED_FACE ( 'NONE', ( #127 ), #83, .F. ) ;
#257 = APPROVAL_DATE_TIME ( #133, #298 ) ;
#258 = EDGE_CURVE ( 'NONE', #77, #147, #168, .T. ) ;
#259 = CARTESIAN_POINT ( 'NONE',  ( 0.000000000000000000, 0.000000000000000000, 7.199999999999984190 ) ) ;
#260 = APPROVAL_DATE_TIME ( #42, #159 ) ;
#261 = ORIENTED_EDGE ( 'NONE', *, *, #246, .F. ) ;
#262 = CC_DESIGN_APPROVAL ( #272, ( #82 ) ) ;
#263 = ADVANCED_FACE ( 'NONE', ( #198 ), #295, .T. ) ;
#264 = VERTEX_POINT ( 'NONE', #153 ) ;
#265 = ORIENTED_EDGE ( 'NONE', *, *, #99, .F. ) ;
#266 = DIRECTION ( 'NONE',  ( -0.000000000000000000, -0.000000000000000000, -1.000000000000000000 ) ) ;
#267 = ORIENTED_EDGE ( 'NONE', *, *, #2, .T. ) ;
#268 = DIRECTION ( 'NONE',  ( 1.000000000000000000, 0.000000000000000000, 0.000000000000000000 ) ) ;
#269 = CC_DESIGN_DATE_AND_TIME_ASSIGNMENT ( #166, #117, ( #82 ) ) ;
#270 = CARTESIAN_POINT ( 'NONE',  ( 0.000000000000000000, 0.000000000000000000, 7.000000000000000000 ) ) ;
#271 = LOCAL_TIME ( 14, 18, 52.00000000000000000, #90 ) ;
#272 = APPROVAL ( #233, 'NEURÈENÝ' ) ;
#273 = DIRECTION ( 'NONE',  ( 0.000000000000000000, 0.000000000000000000, 1.000000000000000000 ) ) ;
#274 = DIRECTION ( 'NONE',  ( 0.000000000000000000, 0.000000000000000000, 1.000000000000000000 ) ) ;
#275 = CARTESIAN_POINT ( 'NONE',  ( 0.000000000000000000, 0.000000000000000000, 0.000000000000000000 ) ) ;
#276 = AXIS2_PLACEMENT_3D ( 'NONE', #60, #219, #156 ) ;
#277 = LOCAL_TIME ( 14, 18, 52.00000000000000000, #182 ) ;
#278 =( NAMED_UNIT ( * ) SI_UNIT ( $, .STERADIAN. ) SOLID_ANGLE_UNIT ( ) );
#279 = CC_DESIGN_PERSON_AND_ORGANIZATION_ASSIGNMENT ( #206, #186, ( #34 ) ) ;
#280 = DESIGN_CONTEXT ( 'detailed design', #220, 'design' ) ;
#281 = PERSON_AND_ORGANIZATION_ROLE ( 'creator' ) ;
#282 = DIRECTION ( 'NONE',  ( 1.000000000000000000, 0.000000000000000000, 0.000000000000000000 ) ) ;
#283 = CALENDAR_DATE ( 2022, 7, 7 ) ;
#284 = CARTESIAN_POINT ( 'NONE',  ( 0.000000000000000000, 0.000000000000000000, 507.0000000000000000 ) ) ;
#285 = ORIENTED_EDGE ( 'NONE', *, *, #237, .F. ) ;
#286 = EDGE_CURVE ( 'NONE', #141, #242, #201, .T. ) ;
#287 = VERTEX_POINT ( 'NONE', #245 ) ;
#288 = FACE_OUTER_BOUND ( 'NONE', #209, .T. ) ;
#289 = VECTOR ( 'NONE', #46, 1000.000000000000000 ) ;
#290 = DIRECTION ( 'NONE',  ( 1.000000000000000000, 0.000000000000000000, 0.000000000000000000 ) ) ;
#291 = CARTESIAN_POINT ( 'NONE',  ( -12.00000000000000178, 0.000000000000000000, 0.000000000000000000 ) ) ;
#292 = DIRECTION ( 'NONE',  ( 1.224646799147353207E-16, 1.000000000000000000, -0.000000000000000000 ) ) ;
#293 = AXIS2_PLACEMENT_3D ( 'NONE', #9, #274, #247 ) ;
#294 = DIRECTION ( 'NONE',  ( -0.000000000000000000, -0.000000000000000000, -1.000000000000000000 ) ) ;
#295 = CYLINDRICAL_SURFACE ( 'NONE', #106, 12.00000000000000178 ) ;
#296 = CARTESIAN_POINT ( 'NONE',  ( 0.000000000000000000, 0.000000000000000000, 0.000000000000000000 ) ) ;
#297 = CARTESIAN_POINT ( 'NONE',  ( 0.000000000000000000, 0.000000000000000000, 507.0000000000000000 ) ) ;
#298 = APPROVAL ( #70, 'NEURÈENÝ' ) ;
#299 = LOCAL_TIME ( 14, 18, 52.00000000000000000, #89 ) ;
#300 = DATE_AND_TIME ( #134, #223 ) ;
#301 = ADVANCED_FACE ( 'NONE', ( #244 ), #85, .T. ) ;
#302 = SECURITY_CLASSIFICATION_LEVEL ( 'unclassified' ) ;
#303 = ORIENTED_EDGE ( 'NONE', *, *, #18, .T. ) ;
#304 = TOROIDAL_SURFACE ( 'NONE', #125, 9.199999999999999289, 0.2000000000000000111 ) ;
#305 = APPROVAL_ROLE ( '' ) ;
#306 = DIRECTION ( 'NONE',  ( -1.000000000000000000, 0.000000000000000000, 0.000000000000000000 ) ) ;
#307 = ORIENTED_EDGE ( 'NONE', *, *, #128, .T. ) ;
ENDSEC;
END-ISO-10303-21;
