ISO-10303-21;
HEADER;
FILE_DESCRIPTION (( 'STEP AP203' ),
    '1' );
FILE_NAME ('c757.STEP',
    '2022-07-07T12:50:44',
    ( '' ),
    ( '' ),
    'SwSTEP 2.0',
    'SolidWorks 2019',
    '' );
FILE_SCHEMA (( 'CONFIG_CONTROL_DESIGN' ));
ENDSEC;

DATA;
#1 = CC_DESIGN_APPROVAL ( #116, ( #247 ) ) ;
#2 = PLANE ( 'NONE',  #147 ) ;
#3 = CARTESIAN_POINT ( 'NONE',  ( 0.000000000000000000, 0.000000000000000000, 403.0000000000000000 ) ) ;
#4 = PERSON ( 'NEURÈENÝ', 'NEURÈENÝ', 'NEURÈENÝ', ('NEURÈENÝ'), ('NEURÈENÝ'), ('NEURÈENÝ') ) ;
#5 = CARTESIAN_POINT ( 'NONE',  ( 4.000000000000000000, 4.898587196589412829E-16, 3.000000000000000000 ) ) ;
#6 = APPROVAL_DATE_TIME ( #139, #30 ) ;
#7 = DIRECTION ( 'NONE',  ( 1.000000000000000000, 0.000000000000000000, 0.000000000000000000 ) ) ;
#8 = APPROVAL_STATUS ( 'not_yet_approved' ) ;
#9 = ADVANCED_FACE ( 'NONE', ( #96 ), #290, .F. ) ;
#10 = ORIENTED_EDGE ( 'NONE', *, *, #238, .F. ) ;
#11 = CIRCLE ( 'NONE', #202, 4.000000000000000000 ) ;
#12 = EDGE_CURVE ( 'NONE', #235, #306, #25, .T. ) ;
#13 = VERTEX_POINT ( 'NONE', #288 ) ;
#14 = COORDINATED_UNIVERSAL_TIME_OFFSET ( 1, 0, .AHEAD. ) ;
#15 = MECHANICAL_CONTEXT ( 'NONE', #128, 'mechanical' ) ;
#16 = VERTEX_POINT ( 'NONE', #72 ) ;
#17 = DIRECTION ( 'NONE',  ( 0.000000000000000000, 0.000000000000000000, 1.000000000000000000 ) ) ;
#18 = PERSON_AND_ORGANIZATION ( #4, #86 ) ;
#19 = ORIENTED_EDGE ( 'NONE', *, *, #143, .F. ) ;
#20 = EDGE_LOOP ( 'NONE', ( #215, #268, #129, #273 ) ) ;
#21 = LOCAL_TIME ( 14, 50, 44.00000000000000000, #14 ) ;
#22 = DIRECTION ( 'NONE',  ( 1.000000000000000000, 0.000000000000000000, -0.000000000000000000 ) ) ;
#23 = ORIENTED_EDGE ( 'NONE', *, *, #75, .F. ) ;
#24 = CC_DESIGN_DATE_AND_TIME_ASSIGNMENT ( #159, #233, ( #207 ) ) ;
#25 = CIRCLE ( 'NONE', #246, 4.000000000000000000 ) ;
#26 = DIRECTION ( 'NONE',  ( 1.000000000000000000, 0.000000000000000000, 0.000000000000000000 ) ) ;
#27 = CIRCLE ( 'NONE', #236, 2.000000000000000000 ) ;
#28 = CYLINDRICAL_SURFACE ( 'NONE', #242, 2.000000000000000000 ) ;
#29 = FACE_OUTER_BOUND ( 'NONE', #125, .T. ) ;
#30 = APPROVAL ( #8, 'NEURÈENÝ' ) ;
#31 = DIRECTION ( 'NONE',  ( 0.000000000000000000, 0.000000000000000000, 1.000000000000000000 ) ) ;
#32 = AXIS2_PLACEMENT_3D ( 'NONE', #249, #275, #156 ) ;
#33 = CARTESIAN_POINT ( 'NONE',  ( 0.000000000000000000, 0.000000000000000000, 3.199999999999980638 ) ) ;
#34 = PERSON_AND_ORGANIZATION ( #4, #86 ) ;
#35 = SHAPE_DEFINITION_REPRESENTATION ( #212, #232 ) ;
#36 = ORIENTED_EDGE ( 'NONE', *, *, #213, .T. ) ;
#37 = PERSON_AND_ORGANIZATION ( #4, #86 ) ;
#38 = AXIS2_PLACEMENT_3D ( 'NONE', #171, #46, #79 ) ;
#39 = CALENDAR_DATE ( 2022, 7, 7 ) ;
#40 = EDGE_CURVE ( 'NONE', #263, #305, #286, .T. ) ;
#41 = APPROVAL_ROLE ( '' ) ;
#42 = AXIS2_PLACEMENT_3D ( 'NONE', #292, #80, #57 ) ;
#43 =( LENGTH_UNIT ( ) NAMED_UNIT ( * ) SI_UNIT ( .MILLI., .METRE. ) );
#44 = CC_DESIGN_SECURITY_CLASSIFICATION ( #207, ( #247 ) ) ;
#45 = CC_DESIGN_PERSON_AND_ORGANIZATION_ASSIGNMENT ( #161, #115, ( #162 ) ) ;
#46 = DIRECTION ( 'NONE',  ( 0.000000000000000000, 0.000000000000000000, 1.000000000000000000 ) ) ;
#47 = ADVANCED_FACE ( 'NONE', ( #285 ), #51, .F. ) ;
#48 = DIRECTION ( 'NONE',  ( -1.000000000000000000, 1.224646799147353207E-16, 0.000000000000000000 ) ) ;
#49 = DIRECTION ( 'NONE',  ( -1.000000000000000000, 0.000000000000000000, 0.000000000000000000 ) ) ;
#50 = DIRECTION ( 'NONE',  ( -0.000000000000000000, -0.000000000000000000, -1.000000000000000000 ) ) ;
#51 = TOROIDAL_SURFACE ( 'NONE', #38, 2.200000000000000178, 0.2000000000000000111 ) ;
#52 = ORIENTED_EDGE ( 'NONE', *, *, #185, .F. ) ;
#53 = CC_DESIGN_PERSON_AND_ORGANIZATION_ASSIGNMENT ( #37, #117, ( #247 ) ) ;
#54 = DIRECTION ( 'NONE',  ( -0.000000000000000000, -0.000000000000000000, -1.000000000000000000 ) ) ;
#55 = DIRECTION ( 'NONE',  ( 1.000000000000000000, 0.000000000000000000, 0.000000000000000000 ) ) ;
#56 = DATE_AND_TIME ( #39, #21 ) ;
#57 = DIRECTION ( 'NONE',  ( 1.000000000000000000, 0.000000000000000000, 0.000000000000000000 ) ) ;
#58 = AXIS2_PLACEMENT_3D ( 'NONE', #33, #178, #7 ) ;
#59 = DATE_AND_TIME ( #298, #160 ) ;
#60 = COORDINATED_UNIVERSAL_TIME_OFFSET ( 1, 0, .AHEAD. ) ;
#61 = EDGE_CURVE ( 'NONE', #305, #122, #214, .T. ) ;
#62 = ADVANCED_FACE ( 'NONE', ( #99 ), #219, .T. ) ;
#63 = ORIENTED_EDGE ( 'NONE', *, *, #61, .F. ) ;
#64 = AXIS2_PLACEMENT_3D ( 'NONE', #94, #265, #281 ) ;
#65 = CARTESIAN_POINT ( 'NONE',  ( 2.000000000000000000, 2.449293598294706414E-16, 403.0000000000000000 ) ) ;
#66 = ORIENTED_EDGE ( 'NONE', *, *, #173, .F. ) ;
#67 = FACE_OUTER_BOUND ( 'NONE', #176, .T. ) ;
#68 = DIRECTION ( 'NONE',  ( 1.000000000000000000, 0.000000000000000000, 0.000000000000000000 ) ) ;
#69 = CC_DESIGN_DATE_AND_TIME_ASSIGNMENT ( #56, #205, ( #162 ) ) ;
#70 = CIRCLE ( 'NONE', #271, 4.000000000000000000 ) ;
#71 = CARTESIAN_POINT ( 'NONE',  ( 0.000000000000000000, 0.000000000000000000, 3.000000000000000000 ) ) ;
#72 = CARTESIAN_POINT ( 'NONE',  ( 2.200000000000000178, 0.000000000000000000, 2.999999999999990674 ) ) ;
#73 = ORIENTED_EDGE ( 'NONE', *, *, #110, .T. ) ;
#74 = CARTESIAN_POINT ( 'NONE',  ( -2.000000000000000000, 0.000000000000000000, 403.0000000000000000 ) ) ;
#75 = EDGE_CURVE ( 'NONE', #263, #269, #223, .T. ) ;
#76 = CARTESIAN_POINT ( 'NONE',  ( 0.000000000000000000, 0.000000000000000000, 403.0000000000000000 ) ) ;
#77 = AXIS2_PLACEMENT_3D ( 'NONE', #82, #134, #84 ) ;
#78 = CARTESIAN_POINT ( 'NONE',  ( 0.000000000000000000, 0.000000000000000000, 3.000000000000000000 ) ) ;
#79 = DIRECTION ( 'NONE',  ( 1.000000000000000000, 0.000000000000000000, 0.000000000000000000 ) ) ;
#80 = DIRECTION ( 'NONE',  ( 0.000000000000000000, 0.000000000000000000, 1.000000000000000000 ) ) ;
#81 = APPROVAL_PERSON_ORGANIZATION ( #141, #116, #206 ) ;
#82 = CARTESIAN_POINT ( 'NONE',  ( 0.000000000000000000, 0.000000000000000000, 3.199999999999980638 ) ) ;
#83 = DIRECTION ( 'NONE',  ( 0.000000000000000000, -1.000000000000000000, 0.000000000000000000 ) ) ;
#84 = DIRECTION ( 'NONE',  ( 1.000000000000000000, 0.000000000000000000, 0.000000000000000000 ) ) ;
#85 = AXIS2_PLACEMENT_3D ( 'NONE', #193, #199, #22 ) ;
#86 = ORGANIZATION ( 'NEURÈENÝ', 'NEURÈENÝ', '' ) ;
#87 = APPROVAL_DATE_TIME ( #59, #116 ) ;
#88 = ORIENTED_EDGE ( 'NONE', *, *, #213, .F. ) ;
#89 = APPROVAL_STATUS ( 'not_yet_approved' ) ;
#90 = ADVANCED_FACE ( 'NONE', ( #101 ), #197, .T. ) ;
#91 = ORIENTED_EDGE ( 'NONE', *, *, #12, .T. ) ;
#92 = AXIS2_PLACEMENT_3D ( 'NONE', #226, #104, #55 ) ;
#93 =( NAMED_UNIT ( * ) PLANE_ANGLE_UNIT ( ) SI_UNIT ( $, .RADIAN. ) );
#94 = CARTESIAN_POINT ( 'NONE',  ( 0.000000000000000000, 0.000000000000000000, 3.000000000000000000 ) ) ;
#95 = FACE_BOUND ( 'NONE', #186, .T. ) ;
#96 = FACE_OUTER_BOUND ( 'NONE', #165, .T. ) ;
#97 = ORIENTED_EDGE ( 'NONE', *, *, #270, .F. ) ;
#98 = UNCERTAINTY_MEASURE_WITH_UNIT (LENGTH_MEASURE( 1.000000000000000082E-05 ), #43, 'distance_accuracy_value', 'NONE');
#99 = FACE_OUTER_BOUND ( 'NONE', #244, .T. ) ;
#100 = PRODUCT ( 'c757', 'c757', '', ( #15 ) ) ;
#101 = FACE_OUTER_BOUND ( 'NONE', #20, .T. ) ;
#102 = VECTOR ( 'NONE', #250, 1000.000000000000000 ) ;
#103 = CARTESIAN_POINT ( 'NONE',  ( 0.000000000000000000, 0.000000000000000000, 3.000000000000000000 ) ) ;
#104 = DIRECTION ( 'NONE',  ( -0.000000000000000000, -0.000000000000000000, -1.000000000000000000 ) ) ;
#105 = DIRECTION ( 'NONE',  ( -0.000000000000000000, -0.000000000000000000, -1.000000000000000000 ) ) ;
#106 = APPROVAL_PERSON_ORGANIZATION ( #34, #30, #229 ) ;
#107 = CARTESIAN_POINT ( 'NONE',  ( -4.000000000000000000, 0.000000000000000000, 3.000000000000000000 ) ) ;
#108 = ADVANCED_FACE ( 'NONE', ( #220 ), #2, .T. ) ;
#109 = DIRECTION ( 'NONE',  ( -0.000000000000000000, -0.000000000000000000, -1.000000000000000000 ) ) ;
#110 = EDGE_CURVE ( 'NONE', #122, #16, #133, .T. ) ;
#111 = DATE_AND_TIME ( #137, #121 ) ;
#112 = VECTOR ( 'NONE', #126, 1000.000000000000000 ) ;
#113 = ORIENTED_EDGE ( 'NONE', *, *, #75, .T. ) ;
#114 = LOCAL_TIME ( 14, 50, 44.00000000000000000, #259 ) ;
#115 = PERSON_AND_ORGANIZATION_ROLE ( 'creator' ) ;
#116 = APPROVAL ( #89, 'NEURÈENÝ' ) ;
#117 = PERSON_AND_ORGANIZATION_ROLE ( 'design_supplier' ) ;
#118 = EDGE_LOOP ( 'NONE', ( #97, #231, #163, #52 ) ) ;
#119 = FACE_OUTER_BOUND ( 'NONE', #118, .T. ) ;
#120 = AXIS2_PLACEMENT_3D ( 'NONE', #131, #109, #248 ) ;
#121 = LOCAL_TIME ( 14, 50, 44.00000000000000000, #251 ) ;
#122 = VERTEX_POINT ( 'NONE', #201 ) ;
#123 = CARTESIAN_POINT ( 'NONE',  ( -2.000000000000000000, 0.000000000000000000, 403.0000000000000000 ) ) ;
#124 = AXIS2_PLACEMENT_3D ( 'NONE', #237, #272, #151 ) ;
#125 = EDGE_LOOP ( 'NONE', ( #63, #19, #177, #280 ) ) ;
#126 = DIRECTION ( 'NONE',  ( -0.000000000000000000, -0.000000000000000000, -1.000000000000000000 ) ) ;
#127 = DESIGN_CONTEXT ( 'detailed design', #144, 'design' ) ;
#128 = APPLICATION_CONTEXT ( 'configuration controlled 3d designs of mechanical parts and assemblies' ) ;
#129 = ORIENTED_EDGE ( 'NONE', *, *, #185, .T. ) ;
#130 = CC_DESIGN_APPROVAL ( #188, ( #162 ) ) ;
#131 = CARTESIAN_POINT ( 'NONE',  ( 0.000000000000000000, 0.000000000000000000, 3.000000000000000000 ) ) ;
#132 = CARTESIAN_POINT ( 'NONE',  ( 2.000000000000000000, 2.449293598294706414E-16, 3.199999999999980638 ) ) ;
#133 = CIRCLE ( 'NONE', #120, 2.200000000000000178 ) ;
#134 = DIRECTION ( 'NONE',  ( 0.000000000000000000, 0.000000000000000000, 1.000000000000000000 ) ) ;
#135 = DIRECTION ( 'NONE',  ( 1.000000000000000000, 0.000000000000000000, 0.000000000000000000 ) ) ;
#136 = PERSON_AND_ORGANIZATION_ROLE ( 'classification_officer' ) ;
#137 = CALENDAR_DATE ( 2022, 7, 7 ) ;
#138 = CC_DESIGN_PERSON_AND_ORGANIZATION_ASSIGNMENT ( #255, #136, ( #207 ) ) ;
#139 = DATE_AND_TIME ( #225, #114 ) ;
#140 = CIRCLE ( 'NONE', #32, 4.000000000000000000 ) ;
#141 = PERSON_AND_ORGANIZATION ( #4, #86 ) ;
#142 = PLANE ( 'NONE',  #300 ) ;
#143 = EDGE_CURVE ( 'NONE', #194, #305, #287, .T. ) ;
#144 = APPLICATION_CONTEXT ( 'configuration controlled 3d designs of mechanical parts and assemblies' ) ;
#145 =( GEOMETRIC_REPRESENTATION_CONTEXT ( 3 ) GLOBAL_UNCERTAINTY_ASSIGNED_CONTEXT ( ( #98 ) ) GLOBAL_UNIT_ASSIGNED_CONTEXT ( ( #43, #93, #239 ) ) REPRESENTATION_CONTEXT ( 'NONE', 'WORKASPACE' ) );
#146 = CARTESIAN_POINT ( 'NONE',  ( -2.200000000000000178, 2.694222958124177006E-16, 3.199999999999980638 ) ) ;
#147 = AXIS2_PLACEMENT_3D ( 'NONE', #158, #294, #200 ) ;
#148 = EDGE_LOOP ( 'NONE', ( #113, #307 ) ) ;
#149 = CIRCLE ( 'NONE', #42, 2.000000000000000000 ) ;
#150 = EDGE_CURVE ( 'NONE', #269, #263, #27, .T. ) ;
#151 = DIRECTION ( 'NONE',  ( 1.000000000000000000, 0.000000000000000000, 0.000000000000000000 ) ) ;
#152 = DIRECTION ( 'NONE',  ( -1.000000000000000000, 0.000000000000000000, 0.000000000000000000 ) ) ;
#153 = CARTESIAN_POINT ( 'NONE',  ( -4.000000000000000000, 0.000000000000000000, 3.000000000000000000 ) ) ;
#154 = AXIS2_PLACEMENT_3D ( 'NONE', #203, #83, #181 ) ;
#155 = DIRECTION ( 'NONE',  ( -1.000000000000000000, 0.000000000000000000, 0.000000000000000000 ) ) ;
#156 = DIRECTION ( 'NONE',  ( 1.000000000000000000, 0.000000000000000000, 0.000000000000000000 ) ) ;
#157 = AXIS2_PLACEMENT_3D ( 'NONE', #146, #172, #48 ) ;
#158 = CARTESIAN_POINT ( 'NONE',  ( 0.000000000000000000, 0.000000000000000000, 403.0000000000000000 ) ) ;
#159 = DATE_AND_TIME ( #279, #182 ) ;
#160 = LOCAL_TIME ( 14, 50, 44.00000000000000000, #60 ) ;
#161 = PERSON_AND_ORGANIZATION ( #4, #86 ) ;
#162 = PRODUCT_DEFINITION ( 'NEZNÁMÝ', '', #247, #127 ) ;
#163 = ORIENTED_EDGE ( 'NONE', *, *, #173, .T. ) ;
#164 = CARTESIAN_POINT ( 'NONE',  ( 4.000000000000000000, 4.898587196589412829E-16, 3.000000000000000000 ) ) ;
#165 = EDGE_LOOP ( 'NONE', ( #245, #66 ) ) ;
#166 = EDGE_CURVE ( 'NONE', #16, #122, #297, .T. ) ;
#167 = CLOSED_SHELL ( 'NONE', ( #47, #62, #252, #90, #256, #9, #208, #108, #228 ) ) ;
#168 = APPLICATION_PROTOCOL_DEFINITION ( 'international standard', 'config_control_design', 1994, #128 ) ;
#169 = TOROIDAL_SURFACE ( 'NONE', #77, 2.200000000000000178, 0.2000000000000000111 ) ;
#170 = DIRECTION ( 'NONE',  ( 0.000000000000000000, 0.000000000000000000, 1.000000000000000000 ) ) ;
#171 = CARTESIAN_POINT ( 'NONE',  ( 0.000000000000000000, 0.000000000000000000, 3.199999999999980638 ) ) ;
#172 = DIRECTION ( 'NONE',  ( 1.224646799147353207E-16, 1.000000000000000000, -0.000000000000000000 ) ) ;
#173 = EDGE_CURVE ( 'NONE', #291, #13, #11, .T. ) ;
#174 = DIRECTION ( 'NONE',  ( -0.000000000000000000, -0.000000000000000000, -1.000000000000000000 ) ) ;
#175 = CC_DESIGN_APPROVAL ( #30, ( #207 ) ) ;
#176 = EDGE_LOOP ( 'NONE', ( #91, #243 ) ) ;
#177 = ORIENTED_EDGE ( 'NONE', *, *, #238, .T. ) ;
#178 = DIRECTION ( 'NONE',  ( 0.000000000000000000, 0.000000000000000000, 1.000000000000000000 ) ) ;
#179 = CC_DESIGN_PERSON_AND_ORGANIZATION_ASSIGNMENT ( #18, #299, ( #100 ) ) ;
#180 = CARTESIAN_POINT ( 'NONE',  ( 0.000000000000000000, 0.000000000000000000, 403.0000000000000000 ) ) ;
#181 = DIRECTION ( 'NONE',  ( 0.000000000000000000, 0.000000000000000000, -1.000000000000000000 ) ) ;
#182 = LOCAL_TIME ( 14, 50, 44.00000000000000000, #227 ) ;
#183 = PERSON_AND_ORGANIZATION_ROLE ( 'creator' ) ;
#184 = EDGE_LOOP ( 'NONE', ( #282, #196, #274, #10 ) ) ;
#185 = EDGE_CURVE ( 'NONE', #235, #13, #221, .T. ) ;
#186 = EDGE_LOOP ( 'NONE', ( #218, #73 ) ) ;
#187 = APPROVAL_DATE_TIME ( #111, #188 ) ;
#188 = APPROVAL ( #302, 'NEURÈENÝ' ) ;
#189 = APPLICATION_PROTOCOL_DEFINITION ( 'international standard', 'config_control_design', 1994, #144 ) ;
#190 = DIRECTION ( 'NONE',  ( 1.000000000000000000, 0.000000000000000000, 0.000000000000000000 ) ) ;
#191 = EDGE_CURVE ( 'NONE', #305, #194, #149, .T. ) ;
#192 = CIRCLE ( 'NONE', #154, 0.2000000000000000944 ) ;
#193 = CARTESIAN_POINT ( 'NONE',  ( 0.000000000000000000, 0.000000000000000000, 0.000000000000000000 ) ) ;
#194 = VERTEX_POINT ( 'NONE', #132 ) ;
#195 = MANIFOLD_SOLID_BREP ( 'Zaoblit1', #167 ) ;
#196 = ORIENTED_EDGE ( 'NONE', *, *, #61, .T. ) ;
#197 = CYLINDRICAL_SURFACE ( 'NONE', #240, 4.000000000000000000 ) ;
#198 = EDGE_CURVE ( 'NONE', #13, #291, #140, .T. ) ;
#199 = DIRECTION ( 'NONE',  ( 0.000000000000000000, 0.000000000000000000, 1.000000000000000000 ) ) ;
#200 = DIRECTION ( 'NONE',  ( 1.000000000000000000, 0.000000000000000000, -0.000000000000000000 ) ) ;
#201 = CARTESIAN_POINT ( 'NONE',  ( -2.200000000000000178, 2.694222958124177006E-16, 2.999999999999990674 ) ) ;
#202 = AXIS2_PLACEMENT_3D ( 'NONE', #276, #295, #222 ) ;
#203 = CARTESIAN_POINT ( 'NONE',  ( 2.200000000000000178, 0.000000000000000000, 3.199999999999980638 ) ) ;
#204 = FACE_OUTER_BOUND ( 'NONE', #211, .T. ) ;
#205 = DATE_TIME_ROLE ( 'creation_date' ) ;
#206 = APPROVAL_ROLE ( '' ) ;
#207 = SECURITY_CLASSIFICATION ( '', '', #257 ) ;
#208 = ADVANCED_FACE ( 'NONE', ( #204 ), #28, .T. ) ;
#209 = ORIENTED_EDGE ( 'NONE', *, *, #150, .F. ) ;
#210 = DIRECTION ( 'NONE',  ( 0.000000000000000000, 0.000000000000000000, 1.000000000000000000 ) ) ;
#211 = EDGE_LOOP ( 'NONE', ( #88, #23, #230, #217 ) ) ;
#212 = PRODUCT_DEFINITION_SHAPE ( 'NONE', 'NONE',  #162 ) ;
#213 = EDGE_CURVE ( 'NONE', #269, #194, #296, .T. ) ;
#214 = CIRCLE ( 'NONE', #157, 0.2000000000000000944 ) ;
#215 = ORIENTED_EDGE ( 'NONE', *, *, #234, .F. ) ;
#216 = CARTESIAN_POINT ( 'NONE',  ( 0.000000000000000000, 0.000000000000000000, 3.000000000000000000 ) ) ;
#217 = ORIENTED_EDGE ( 'NONE', *, *, #191, .T. ) ;
#218 = ORIENTED_EDGE ( 'NONE', *, *, #166, .T. ) ;
#219 = CYLINDRICAL_SURFACE ( 'NONE', #293, 2.000000000000000000 ) ;
#220 = FACE_OUTER_BOUND ( 'NONE', #148, .T. ) ;
#221 = LINE ( 'NONE', #107, #266 ) ;
#222 = DIRECTION ( 'NONE',  ( 1.000000000000000000, 0.000000000000000000, 0.000000000000000000 ) ) ;
#223 = CIRCLE ( 'NONE', #124, 2.000000000000000000 ) ;
#224 = LINE ( 'NONE', #5, #261 ) ;
#225 = CALENDAR_DATE ( 2022, 7, 7 ) ;
#226 = CARTESIAN_POINT ( 'NONE',  ( 0.000000000000000000, 0.000000000000000000, 3.000000000000000000 ) ) ;
#227 = COORDINATED_UNIVERSAL_TIME_OFFSET ( 1, 0, .AHEAD. ) ;
#228 = ADVANCED_FACE ( 'NONE', ( #29 ), #169, .F. ) ;
#229 = APPROVAL_ROLE ( '' ) ;
#230 = ORIENTED_EDGE ( 'NONE', *, *, #40, .T. ) ;
#231 = ORIENTED_EDGE ( 'NONE', *, *, #234, .T. ) ;
#232 = ADVANCED_BREP_SHAPE_REPRESENTATION ( 'c757', ( #195, #289 ), #145 ) ;
#233 = DATE_TIME_ROLE ( 'classification_date' ) ;
#234 = EDGE_CURVE ( 'NONE', #306, #291, #224, .T. ) ;
#235 = VERTEX_POINT ( 'NONE', #153 ) ;
#236 = AXIS2_PLACEMENT_3D ( 'NONE', #3, #31, #135 ) ;
#237 = CARTESIAN_POINT ( 'NONE',  ( 0.000000000000000000, 0.000000000000000000, 403.0000000000000000 ) ) ;
#238 = EDGE_CURVE ( 'NONE', #194, #16, #192, .T. ) ;
#239 =( NAMED_UNIT ( * ) SI_UNIT ( $, .STERADIAN. ) SOLID_ANGLE_UNIT ( ) );
#240 = AXIS2_PLACEMENT_3D ( 'NONE', #78, #50, #152 ) ;
#241 = DIRECTION ( 'NONE',  ( 0.000000000000000000, 0.000000000000000000, 1.000000000000000000 ) ) ;
#242 = AXIS2_PLACEMENT_3D ( 'NONE', #180, #54, #155 ) ;
#243 = ORIENTED_EDGE ( 'NONE', *, *, #270, .T. ) ;
#244 = EDGE_LOOP ( 'NONE', ( #209, #36, #258, #303 ) ) ;
#245 = ORIENTED_EDGE ( 'NONE', *, *, #198, .F. ) ;
#246 = AXIS2_PLACEMENT_3D ( 'NONE', #103, #241, #26 ) ;
#247 = PRODUCT_DEFINITION_FORMATION_WITH_SPECIFIED_SOURCE ( 'LIBOVOLNÝ', '', #100, .NOT_KNOWN. ) ;
#248 = DIRECTION ( 'NONE',  ( 1.000000000000000000, 0.000000000000000000, 0.000000000000000000 ) ) ;
#249 = CARTESIAN_POINT ( 'NONE',  ( 0.000000000000000000, 0.000000000000000000, 0.000000000000000000 ) ) ;
#250 = DIRECTION ( 'NONE',  ( -0.000000000000000000, -0.000000000000000000, -1.000000000000000000 ) ) ;
#251 = COORDINATED_UNIVERSAL_TIME_OFFSET ( 1, 0, .AHEAD. ) ;
#252 = ADVANCED_FACE ( 'NONE', ( #119 ), #301, .T. ) ;
#253 = CARTESIAN_POINT ( 'NONE',  ( 2.000000000000000000, 2.449293598294706414E-16, 403.0000000000000000 ) ) ;
#254 = APPROVAL_PERSON_ORGANIZATION ( #283, #188, #41 ) ;
#255 = PERSON_AND_ORGANIZATION ( #4, #86 ) ;
#256 = ADVANCED_FACE ( 'NONE', ( #95, #67 ), #142, .T. ) ;
#257 = SECURITY_CLASSIFICATION_LEVEL ( 'unclassified' ) ;
#258 = ORIENTED_EDGE ( 'NONE', *, *, #143, .T. ) ;
#259 = COORDINATED_UNIVERSAL_TIME_OFFSET ( 1, 0, .AHEAD. ) ;
#260 = PRODUCT_RELATED_PRODUCT_CATEGORY ( 'detail', '', ( #100 ) ) ;
#261 = VECTOR ( 'NONE', #277, 1000.000000000000000 ) ;
#262 = CARTESIAN_POINT ( 'NONE',  ( -2.000000000000000000, 0.000000000000000000, 3.199999999999980638 ) ) ;
#263 = VERTEX_POINT ( 'NONE', #123 ) ;
#264 = CARTESIAN_POINT ( 'NONE',  ( 0.000000000000000000, 0.000000000000000000, 0.000000000000000000 ) ) ;
#265 = DIRECTION ( 'NONE',  ( -0.000000000000000000, -0.000000000000000000, -1.000000000000000000 ) ) ;
#266 = VECTOR ( 'NONE', #105, 1000.000000000000000 ) ;
#267 = CARTESIAN_POINT ( 'NONE',  ( 4.000000000000000000, 4.898587196589412829E-16, 0.000000000000000000 ) ) ;
#268 = ORIENTED_EDGE ( 'NONE', *, *, #12, .F. ) ;
#269 = VERTEX_POINT ( 'NONE', #65 ) ;
#270 = EDGE_CURVE ( 'NONE', #306, #235, #70, .T. ) ;
#271 = AXIS2_PLACEMENT_3D ( 'NONE', #71, #170, #190 ) ;
#272 = DIRECTION ( 'NONE',  ( 0.000000000000000000, 0.000000000000000000, 1.000000000000000000 ) ) ;
#273 = ORIENTED_EDGE ( 'NONE', *, *, #198, .T. ) ;
#274 = ORIENTED_EDGE ( 'NONE', *, *, #166, .F. ) ;
#275 = DIRECTION ( 'NONE',  ( 0.000000000000000000, 0.000000000000000000, 1.000000000000000000 ) ) ;
#276 = CARTESIAN_POINT ( 'NONE',  ( 0.000000000000000000, 0.000000000000000000, 0.000000000000000000 ) ) ;
#277 = DIRECTION ( 'NONE',  ( -0.000000000000000000, -0.000000000000000000, -1.000000000000000000 ) ) ;
#278 = PERSON_AND_ORGANIZATION ( #4, #86 ) ;
#279 = CALENDAR_DATE ( 2022, 7, 7 ) ;
#280 = ORIENTED_EDGE ( 'NONE', *, *, #110, .F. ) ;
#281 = DIRECTION ( 'NONE',  ( -1.000000000000000000, 0.000000000000000000, 0.000000000000000000 ) ) ;
#282 = ORIENTED_EDGE ( 'NONE', *, *, #191, .F. ) ;
#283 = PERSON_AND_ORGANIZATION ( #4, #86 ) ;
#284 = DIRECTION ( 'NONE',  ( 1.000000000000000000, 0.000000000000000000, -0.000000000000000000 ) ) ;
#285 = FACE_OUTER_BOUND ( 'NONE', #184, .T. ) ;
#286 = LINE ( 'NONE', #74, #112 ) ;
#287 = CIRCLE ( 'NONE', #58, 2.000000000000000000 ) ;
#288 = CARTESIAN_POINT ( 'NONE',  ( -4.000000000000000000, 0.000000000000000000, 0.000000000000000000 ) ) ;
#289 = AXIS2_PLACEMENT_3D ( 'NONE', #264, #210, #68 ) ;
#290 = PLANE ( 'NONE',  #85 ) ;
#291 = VERTEX_POINT ( 'NONE', #267 ) ;
#292 = CARTESIAN_POINT ( 'NONE',  ( 0.000000000000000000, 0.000000000000000000, 3.199999999999980638 ) ) ;
#293 = AXIS2_PLACEMENT_3D ( 'NONE', #76, #174, #49 ) ;
#294 = DIRECTION ( 'NONE',  ( 0.000000000000000000, 0.000000000000000000, 1.000000000000000000 ) ) ;
#295 = DIRECTION ( 'NONE',  ( 0.000000000000000000, 0.000000000000000000, 1.000000000000000000 ) ) ;
#296 = LINE ( 'NONE', #253, #102 ) ;
#297 = CIRCLE ( 'NONE', #92, 2.200000000000000178 ) ;
#298 = CALENDAR_DATE ( 2022, 7, 7 ) ;
#299 = PERSON_AND_ORGANIZATION_ROLE ( 'design_owner' ) ;
#300 = AXIS2_PLACEMENT_3D ( 'NONE', #216, #17, #284 ) ;
#301 = CYLINDRICAL_SURFACE ( 'NONE', #64, 4.000000000000000000 ) ;
#302 = APPROVAL_STATUS ( 'not_yet_approved' ) ;
#303 = ORIENTED_EDGE ( 'NONE', *, *, #40, .F. ) ;
#304 = CC_DESIGN_PERSON_AND_ORGANIZATION_ASSIGNMENT ( #278, #183, ( #247 ) ) ;
#305 = VERTEX_POINT ( 'NONE', #262 ) ;
#306 = VERTEX_POINT ( 'NONE', #164 ) ;
#307 = ORIENTED_EDGE ( 'NONE', *, *, #150, .T. ) ;
ENDSEC;
END-ISO-10303-21;
