ISO-10303-21;
HEADER;
FILE_DESCRIPTION (( 'STEP AP203' ),
    '1' );
FILE_NAME ('5596.STEP',
    '2022-07-07T12:52:34',
    ( '' ),
    ( '' ),
    'SwSTEP 2.0',
    'SolidWorks 2019',
    '' );
FILE_SCHEMA (( 'CONFIG_CONTROL_DESIGN' ));
ENDSEC;

DATA;
#1 = EDGE_CURVE ( 'NONE', #285, #127, #26, .T. ) ;
#2 = AXIS2_PLACEMENT_3D ( 'NONE', #207, #235, #279 ) ;
#3 = ORIENTED_EDGE ( 'NONE', *, *, #258, .T. ) ;
#4 = ADVANCED_FACE ( 'NONE', ( #96 ), #191, .T. ) ;
#5 = AXIS2_PLACEMENT_3D ( 'NONE', #143, #246, #145 ) ;
#6 = PRODUCT_RELATED_PRODUCT_CATEGORY ( 'detail', '', ( #21 ) ) ;
#7 = EDGE_CURVE ( 'NONE', #162, #70, #47, .T. ) ;
#8 = FACE_OUTER_BOUND ( 'NONE', #214, .T. ) ;
#9 = DATE_TIME_ROLE ( 'classification_date' ) ;
#10 = DIRECTION ( 'NONE',  ( 0.000000000000000000, 0.000000000000000000, 1.000000000000000000 ) ) ;
#11 = CARTESIAN_POINT ( 'NONE',  ( 0.000000000000000000, 0.000000000000000000, 163.0000000000000000 ) ) ;
#12 = ORIENTED_EDGE ( 'NONE', *, *, #101, .T. ) ;
#13 = DIRECTION ( 'NONE',  ( -0.000000000000000000, -0.000000000000000000, -1.000000000000000000 ) ) ;
#14 = ORIENTED_EDGE ( 'NONE', *, *, #101, .F. ) ;
#15 = COORDINATED_UNIVERSAL_TIME_OFFSET ( 1, 0, .AHEAD. ) ;
#16 = DIRECTION ( 'NONE',  ( 0.000000000000000000, 0.000000000000000000, 1.000000000000000000 ) ) ;
#17 = CALENDAR_DATE ( 2022, 7, 7 ) ;
#18 = CARTESIAN_POINT ( 'NONE',  ( 3.500000000000000444, 4.286263797015737088E-16, 3.000000000000000000 ) ) ;
#19 = ADVANCED_FACE ( 'NONE', ( #301, #113 ), #87, .T. ) ;
#20 = CC_DESIGN_APPROVAL ( #64, ( #181 ) ) ;
#21 = PRODUCT ( '5596', '5596', '', ( #170 ) ) ;
#22 = PRODUCT_DEFINITION_FORMATION_WITH_SPECIFIED_SOURCE ( 'LIBOVOLNÝ', '', #21, .NOT_KNOWN. ) ;
#23 = CARTESIAN_POINT ( 'NONE',  ( -1.950000000000000400, 2.388061258337339136E-16, 3.000000000000004441 ) ) ;
#24 = ORIENTED_EDGE ( 'NONE', *, *, #1, .F. ) ;
#25 = ORIENTED_EDGE ( 'NONE', *, *, #240, .T. ) ;
#26 = CIRCLE ( 'NONE', #305, 1.950000000000000400 ) ;
#27 = AXIS2_PLACEMENT_3D ( 'NONE', #222, #249, #195 ) ;
#28 = CC_DESIGN_DATE_AND_TIME_ASSIGNMENT ( #180, #266, ( #135 ) ) ;
#29 = LOCAL_TIME ( 14, 52, 34.00000000000000000, #291 ) ;
#30 = DIRECTION ( 'NONE',  ( 1.000000000000000000, 0.000000000000000000, 0.000000000000000000 ) ) ;
#31 = PERSON_AND_ORGANIZATION_ROLE ( 'classification_officer' ) ;
#32 = FACE_OUTER_BOUND ( 'NONE', #119, .T. ) ;
#33 = CARTESIAN_POINT ( 'NONE',  ( 0.000000000000000000, 0.000000000000000000, 3.000000000000000000 ) ) ;
#34 = CALENDAR_DATE ( 2022, 7, 7 ) ;
#35 = DIRECTION ( 'NONE',  ( -0.000000000000000000, -0.000000000000000000, -1.000000000000000000 ) ) ;
#36 = PLANE ( 'NONE',  #5 ) ;
#37 = EDGE_LOOP ( 'NONE', ( #150, #163, #25, #49 ) ) ;
#38 = SECURITY_CLASSIFICATION_LEVEL ( 'unclassified' ) ;
#39 = VERTEX_POINT ( 'NONE', #40 ) ;
#40 = CARTESIAN_POINT ( 'NONE',  ( 3.500000000000000444, 4.286263797015737088E-16, 0.000000000000000000 ) ) ;
#41 = DIRECTION ( 'NONE',  ( 1.000000000000000000, 0.000000000000000000, -0.000000000000000000 ) ) ;
#42 = EDGE_CURVE ( 'NONE', #95, #70, #259, .T. ) ;
#43 = APPLICATION_CONTEXT ( 'configuration controlled 3d designs of mechanical parts and assemblies' ) ;
#44 = DESIGN_CONTEXT ( 'detailed design', #43, 'design' ) ;
#45 = AXIS2_PLACEMENT_3D ( 'NONE', #78, #105, #109 ) ;
#46 = DIRECTION ( 'NONE',  ( 0.000000000000000000, 0.000000000000000000, 1.000000000000000000 ) ) ;
#47 = LINE ( 'NONE', #138, #121 ) ;
#48 = EDGE_CURVE ( 'NONE', #162, #175, #242, .T. ) ;
#49 = ORIENTED_EDGE ( 'NONE', *, *, #71, .T. ) ;
#50 = CIRCLE ( 'NONE', #278, 3.500000000000000444 ) ;
#51 =( NAMED_UNIT ( * ) PLANE_ANGLE_UNIT ( ) SI_UNIT ( $, .RADIAN. ) );
#52 = APPROVAL_STATUS ( 'not_yet_approved' ) ;
#53 = FACE_OUTER_BOUND ( 'NONE', #239, .T. ) ;
#54 = COORDINATED_UNIVERSAL_TIME_OFFSET ( 1, 0, .AHEAD. ) ;
#55 = DIRECTION ( 'NONE',  ( 1.000000000000000000, 0.000000000000000000, 0.000000000000000000 ) ) ;
#56 = DIRECTION ( 'NONE',  ( 1.000000000000000000, 0.000000000000000000, 0.000000000000000000 ) ) ;
#57 = ORIENTED_EDGE ( 'NONE', *, *, #155, .F. ) ;
#58 = CARTESIAN_POINT ( 'NONE',  ( 0.000000000000000000, 0.000000000000000000, 0.000000000000000000 ) ) ;
#59 = CARTESIAN_POINT ( 'NONE',  ( 1.750000000000000222, 2.143131898507868544E-16, 163.0000000000000000 ) ) ;
#60 = ORIENTED_EDGE ( 'NONE', *, *, #240, .F. ) ;
#61 = CARTESIAN_POINT ( 'NONE',  ( 0.000000000000000000, 0.000000000000000000, 3.200000000000008171 ) ) ;
#62 = LOCAL_TIME ( 14, 52, 34.00000000000000000, #15 ) ;
#63 = APPROVAL_STATUS ( 'not_yet_approved' ) ;
#64 = APPROVAL ( #63, 'NEURÈENÝ' ) ;
#65 = DIRECTION ( 'NONE',  ( 1.000000000000000000, 0.000000000000000000, 0.000000000000000000 ) ) ;
#66 = AXIS2_PLACEMENT_3D ( 'NONE', #116, #92, #186 ) ;
#67 = CIRCLE ( 'NONE', #284, 3.500000000000000444 ) ;
#68 = CARTESIAN_POINT ( 'NONE',  ( -3.500000000000000444, 0.000000000000000000, 0.000000000000000000 ) ) ;
#69 = UNCERTAINTY_MEASURE_WITH_UNIT (LENGTH_MEASURE( 1.000000000000000082E-05 ), #141, 'distance_accuracy_value', 'NONE');
#70 = VERTEX_POINT ( 'NONE', #131 ) ;
#71 = EDGE_CURVE ( 'NONE', #307, #39, #67, .T. ) ;
#72 = ORIENTED_EDGE ( 'NONE', *, *, #264, .T. ) ;
#73 = TOROIDAL_SURFACE ( 'NONE', #166, 1.950000000000000400, 0.2000000000000000111 ) ;
#74 = DATE_AND_TIME ( #17, #253 ) ;
#75 = DIRECTION ( 'NONE',  ( -1.000000000000000000, 0.000000000000000000, 0.000000000000000000 ) ) ;
#76 = AXIS2_PLACEMENT_3D ( 'NONE', #306, #46, #213 ) ;
#77 = PERSON_AND_ORGANIZATION ( #90, #303 ) ;
#78 = CARTESIAN_POINT ( 'NONE',  ( 0.000000000000000000, 0.000000000000000000, 3.000000000000000000 ) ) ;
#79 = CARTESIAN_POINT ( 'NONE',  ( 0.000000000000000000, 0.000000000000000000, 3.000000000000000000 ) ) ;
#80 = ORIENTED_EDGE ( 'NONE', *, *, #42, .T. ) ;
#81 = APPROVAL_ROLE ( '' ) ;
#82 = CYLINDRICAL_SURFACE ( 'NONE', #172, 3.500000000000000444 ) ;
#83 = VERTEX_POINT ( 'NONE', #18 ) ;
#84 = CARTESIAN_POINT ( 'NONE',  ( 0.000000000000000000, 0.000000000000000000, 3.000000000000000000 ) ) ;
#85 = SHAPE_DEFINITION_REPRESENTATION ( #281, #216 ) ;
#86 = CC_DESIGN_PERSON_AND_ORGANIZATION_ASSIGNMENT ( #100, #208, ( #135 ) ) ;
#87 = PLANE ( 'NONE',  #122 ) ;
#88 = APPROVAL_PERSON_ORGANIZATION ( #196, #64, #129 ) ;
#89 = APPLICATION_PROTOCOL_DEFINITION ( 'international standard', 'config_control_design', 1994, #187 ) ;
#90 = PERSON ( 'NEURÈENÝ', 'NEURÈENÝ', 'NEURÈENÝ', ('NEURÈENÝ'), ('NEURÈENÝ'), ('NEURÈENÝ') ) ;
#91 = VECTOR ( 'NONE', #146, 1000.000000000000000 ) ;
#92 = DIRECTION ( 'NONE',  ( 0.000000000000000000, -1.000000000000000000, 0.000000000000000000 ) ) ;
#93 = EDGE_CURVE ( 'NONE', #175, #95, #211, .T. ) ;
#94 = ORIENTED_EDGE ( 'NONE', *, *, #93, .T. ) ;
#95 = VERTEX_POINT ( 'NONE', #276 ) ;
#96 = FACE_OUTER_BOUND ( 'NONE', #178, .T. ) ;
#97 = ORIENTED_EDGE ( 'NONE', *, *, #7, .T. ) ;
#98 =( NAMED_UNIT ( * ) SI_UNIT ( $, .STERADIAN. ) SOLID_ANGLE_UNIT ( ) );
#99 = CIRCLE ( 'NONE', #45, 1.950000000000000400 ) ;
#100 = PERSON_AND_ORGANIZATION ( #90, #303 ) ;
#101 = EDGE_CURVE ( 'NONE', #70, #95, #267, .T. ) ;
#102 = CYLINDRICAL_SURFACE ( 'NONE', #236, 1.750000000000000222 ) ;
#103 = ADVANCED_FACE ( 'NONE', ( #255 ), #197, .T. ) ;
#104 = DIRECTION ( 'NONE',  ( 0.000000000000000000, 0.000000000000000000, 1.000000000000000000 ) ) ;
#105 = DIRECTION ( 'NONE',  ( -0.000000000000000000, -0.000000000000000000, -1.000000000000000000 ) ) ;
#106 = DIRECTION ( 'NONE',  ( -0.000000000000000000, -0.000000000000000000, -1.000000000000000000 ) ) ;
#107 = EDGE_LOOP ( 'NONE', ( #204, #241 ) ) ;
#108 = COORDINATED_UNIVERSAL_TIME_OFFSET ( 1, 0, .AHEAD. ) ;
#109 = DIRECTION ( 'NONE',  ( 1.000000000000000000, 0.000000000000000000, 0.000000000000000000 ) ) ;
#110 = EDGE_LOOP ( 'NONE', ( #230, #165, #265, #60 ) ) ;
#111 = PERSON_AND_ORGANIZATION ( #90, #303 ) ;
#112 = DIRECTION ( 'NONE',  ( -0.000000000000000000, -0.000000000000000000, -1.000000000000000000 ) ) ;
#113 = FACE_OUTER_BOUND ( 'NONE', #147, .T. ) ;
#114 = AXIS2_PLACEMENT_3D ( 'NONE', #232, #16, #65 ) ;
#115 = CC_DESIGN_APPROVAL ( #283, ( #135 ) ) ;
#116 = CARTESIAN_POINT ( 'NONE',  ( 1.950000000000000400, 0.000000000000000000, 3.200000000000008171 ) ) ;
#117 = CC_DESIGN_PERSON_AND_ORGANIZATION_ASSIGNMENT ( #244, #31, ( #181 ) ) ;
#118 = ORIENTED_EDGE ( 'NONE', *, *, #93, .F. ) ;
#119 = EDGE_LOOP ( 'NONE', ( #14, #273, #57, #125 ) ) ;
#120 = CARTESIAN_POINT ( 'NONE',  ( 0.000000000000000000, 0.000000000000000000, 3.000000000000000000 ) ) ;
#121 = VECTOR ( 'NONE', #112, 1000.000000000000000 ) ;
#122 = AXIS2_PLACEMENT_3D ( 'NONE', #84, #182, #41 ) ;
#123 = DIRECTION ( 'NONE',  ( 1.224646799147353207E-16, 1.000000000000000000, -0.000000000000000000 ) ) ;
#124 = DIRECTION ( 'NONE',  ( -1.000000000000000000, 1.224646799147353207E-16, 0.000000000000000000 ) ) ;
#125 = ORIENTED_EDGE ( 'NONE', *, *, #304, .F. ) ;
#126 = CARTESIAN_POINT ( 'NONE',  ( 0.000000000000000000, 0.000000000000000000, 3.000000000000000000 ) ) ;
#127 = VERTEX_POINT ( 'NONE', #228 ) ;
#128 = VECTOR ( 'NONE', #299, 1000.000000000000000 ) ;
#129 = APPROVAL_ROLE ( '' ) ;
#130 = ORIENTED_EDGE ( 'NONE', *, *, #42, .F. ) ;
#131 = CARTESIAN_POINT ( 'NONE',  ( -1.750000000000000222, 0.000000000000000000, 3.200000000000008171 ) ) ;
#132 = CARTESIAN_POINT ( 'NONE',  ( 0.000000000000000000, 0.000000000000000000, 0.000000000000000000 ) ) ;
#133 = AXIS2_PLACEMENT_3D ( 'NONE', #149, #274, #55 ) ;
#134 = EDGE_CURVE ( 'NONE', #83, #39, #248, .T. ) ;
#135 = PRODUCT_DEFINITION ( 'NEZNÁMÝ', '', #22, #44 ) ;
#136 = CIRCLE ( 'NONE', #229, 3.500000000000000444 ) ;
#137 = CARTESIAN_POINT ( 'NONE',  ( 0.000000000000000000, 0.000000000000000000, 0.000000000000000000 ) ) ;
#138 = CARTESIAN_POINT ( 'NONE',  ( -1.750000000000000222, 0.000000000000000000, 163.0000000000000000 ) ) ;
#139 = VERTEX_POINT ( 'NONE', #252 ) ;
#140 = AXIS2_PLACEMENT_3D ( 'NONE', #137, #238, #282 ) ;
#141 =( LENGTH_UNIT ( ) NAMED_UNIT ( * ) SI_UNIT ( .MILLI., .METRE. ) );
#142 = CIRCLE ( 'NONE', #200, 0.2000000000000000944 ) ;
#143 = CARTESIAN_POINT ( 'NONE',  ( 0.000000000000000000, 0.000000000000000000, 163.0000000000000000 ) ) ;
#144 = DATE_AND_TIME ( #277, #62 ) ;
#145 = DIRECTION ( 'NONE',  ( 1.000000000000000000, 0.000000000000000000, -0.000000000000000000 ) ) ;
#146 = DIRECTION ( 'NONE',  ( -0.000000000000000000, -0.000000000000000000, -1.000000000000000000 ) ) ;
#147 = EDGE_LOOP ( 'NONE', ( #3, #72 ) ) ;
#148 = APPROVAL_ROLE ( '' ) ;
#149 = CARTESIAN_POINT ( 'NONE',  ( 0.000000000000000000, 0.000000000000000000, 163.0000000000000000 ) ) ;
#150 = ORIENTED_EDGE ( 'NONE', *, *, #134, .F. ) ;
#151 = CIRCLE ( 'NONE', #133, 1.750000000000000222 ) ;
#152 = DIRECTION ( 'NONE',  ( 1.000000000000000000, 0.000000000000000000, 0.000000000000000000 ) ) ;
#153 = DATE_AND_TIME ( #34, #29 ) ;
#154 = DIRECTION ( 'NONE',  ( 0.000000000000000000, 0.000000000000000000, 1.000000000000000000 ) ) ;
#155 = EDGE_CURVE ( 'NONE', #127, #285, #99, .T. ) ;
#156 = CLOSED_SHELL ( 'NONE', ( #184, #4, #103, #183, #19, #280, #221, #268, #215 ) ) ;
#157 = VECTOR ( 'NONE', #13, 1000.000000000000000 ) ;
#158 = FACE_OUTER_BOUND ( 'NONE', #192, .T. ) ;
#159 = DIRECTION ( 'NONE',  ( 1.000000000000000000, 0.000000000000000000, 0.000000000000000000 ) ) ;
#160 =( GEOMETRIC_REPRESENTATION_CONTEXT ( 3 ) GLOBAL_UNCERTAINTY_ASSIGNED_CONTEXT ( ( #69 ) ) GLOBAL_UNIT_ASSIGNED_CONTEXT ( ( #141, #51, #98 ) ) REPRESENTATION_CONTEXT ( 'NONE', 'WORKASPACE' ) );
#161 = CC_DESIGN_PERSON_AND_ORGANIZATION_ASSIGNMENT ( #77, #270, ( #21 ) ) ;
#162 = VERTEX_POINT ( 'NONE', #203 ) ;
#163 = ORIENTED_EDGE ( 'NONE', *, *, #258, .F. ) ;
#164 = ORIENTED_EDGE ( 'NONE', *, *, #71, .F. ) ;
#165 = ORIENTED_EDGE ( 'NONE', *, *, #134, .T. ) ;
#166 = AXIS2_PLACEMENT_3D ( 'NONE', #224, #10, #30 ) ;
#167 = CC_DESIGN_PERSON_AND_ORGANIZATION_ASSIGNMENT ( #296, #227, ( #22 ) ) ;
#168 = MANIFOLD_SOLID_BREP ( 'Zaoblit1', #156 ) ;
#169 = EDGE_CURVE ( 'NONE', #175, #162, #151, .T. ) ;
#170 = MECHANICAL_CONTEXT ( 'NONE', #187, 'mechanical' ) ;
#171 = DIRECTION ( 'NONE',  ( 1.000000000000000000, 0.000000000000000000, 0.000000000000000000 ) ) ;
#172 = AXIS2_PLACEMENT_3D ( 'NONE', #271, #177, #245 ) ;
#173 = CARTESIAN_POINT ( 'NONE',  ( 3.500000000000000444, 4.286263797015737088E-16, 3.000000000000000000 ) ) ;
#174 = CARTESIAN_POINT ( 'NONE',  ( -1.950000000000000400, 2.388061258337339136E-16, 3.200000000000008171 ) ) ;
#175 = VERTEX_POINT ( 'NONE', #59 ) ;
#176 = COORDINATED_UNIVERSAL_TIME_OFFSET ( 1, 0, .AHEAD. ) ;
#177 = DIRECTION ( 'NONE',  ( -0.000000000000000000, -0.000000000000000000, -1.000000000000000000 ) ) ;
#178 = EDGE_LOOP ( 'NONE', ( #250, #94, #80, #275 ) ) ;
#179 = DIRECTION ( 'NONE',  ( 0.000000000000000000, 0.000000000000000000, 1.000000000000000000 ) ) ;
#180 = DATE_AND_TIME ( #202, #288 ) ;
#181 = SECURITY_CLASSIFICATION ( '', '', #38 ) ;
#182 = DIRECTION ( 'NONE',  ( 0.000000000000000000, 0.000000000000000000, 1.000000000000000000 ) ) ;
#183 = ADVANCED_FACE ( 'NONE', ( #297 ), #82, .T. ) ;
#184 = ADVANCED_FACE ( 'NONE', ( #32 ), #73, .F. ) ;
#185 = AXIS2_PLACEMENT_3D ( 'NONE', #58, #104, #251 ) ;
#186 = DIRECTION ( 'NONE',  ( 0.000000000000000000, 0.000000000000000000, -1.000000000000000000 ) ) ;
#187 = APPLICATION_CONTEXT ( 'configuration controlled 3d designs of mechanical parts and assemblies' ) ;
#188 = DIRECTION ( 'NONE',  ( -1.000000000000000000, 0.000000000000000000, 0.000000000000000000 ) ) ;
#189 = CC_DESIGN_SECURITY_CLASSIFICATION ( #181, ( #22 ) ) ;
#190 = ORIENTED_EDGE ( 'NONE', *, *, #304, .T. ) ;
#191 = CYLINDRICAL_SURFACE ( 'NONE', #243, 1.750000000000000222 ) ;
#192 = EDGE_LOOP ( 'NONE', ( #164, #287 ) ) ;
#193 = APPROVAL_PERSON_ORGANIZATION ( #194, #234, #148 ) ;
#194 = PERSON_AND_ORGANIZATION ( #90, #303 ) ;
#195 = DIRECTION ( 'NONE',  ( 1.000000000000000000, 0.000000000000000000, 0.000000000000000000 ) ) ;
#196 = PERSON_AND_ORGANIZATION ( #90, #303 ) ;
#197 = CYLINDRICAL_SURFACE ( 'NONE', #292, 3.500000000000000444 ) ;
#198 = CIRCLE ( 'NONE', #140, 3.500000000000000444 ) ;
#199 = LINE ( 'NONE', #294, #91 ) ;
#200 = AXIS2_PLACEMENT_3D ( 'NONE', #174, #123, #124 ) ;
#201 = ORIENTED_EDGE ( 'NONE', *, *, #169, .T. ) ;
#202 = CALENDAR_DATE ( 2022, 7, 7 ) ;
#203 = CARTESIAN_POINT ( 'NONE',  ( -1.750000000000000222, 0.000000000000000000, 163.0000000000000000 ) ) ;
#204 = ORIENTED_EDGE ( 'NONE', *, *, #155, .T. ) ;
#205 = CARTESIAN_POINT ( 'NONE',  ( 1.750000000000000222, 2.143131898507868544E-16, 163.0000000000000000 ) ) ;
#206 = APPROVAL_STATUS ( 'not_yet_approved' ) ;
#207 = CARTESIAN_POINT ( 'NONE',  ( 0.000000000000000000, 0.000000000000000000, 163.0000000000000000 ) ) ;
#208 = PERSON_AND_ORGANIZATION_ROLE ( 'creator' ) ;
#209 = CC_DESIGN_PERSON_AND_ORGANIZATION_ASSIGNMENT ( #111, #231, ( #22 ) ) ;
#210 = AXIS2_PLACEMENT_3D ( 'NONE', #61, #179, #152 ) ;
#211 = LINE ( 'NONE', #205, #128 ) ;
#212 = APPROVAL_PERSON_ORGANIZATION ( #223, #283, #81 ) ;
#213 = DIRECTION ( 'NONE',  ( 1.000000000000000000, 0.000000000000000000, -0.000000000000000000 ) ) ;
#214 = EDGE_LOOP ( 'NONE', ( #118, #254, #97, #12 ) ) ;
#215 = ADVANCED_FACE ( 'NONE', ( #225 ), #219, .F. ) ;
#216 = ADVANCED_BREP_SHAPE_REPRESENTATION ( '5596', ( #168, #185 ), #160 ) ;
#217 = EDGE_CURVE ( 'NONE', #70, #285, #142, .T. ) ;
#218 = DIRECTION ( 'NONE',  ( -0.000000000000000000, -0.000000000000000000, -1.000000000000000000 ) ) ;
#219 = TOROIDAL_SURFACE ( 'NONE', #27, 1.950000000000000400, 0.2000000000000000111 ) ;
#220 = LOCAL_TIME ( 14, 52, 34.00000000000000000, #108 ) ;
#221 = ADVANCED_FACE ( 'NONE', ( #8 ), #102, .T. ) ;
#222 = CARTESIAN_POINT ( 'NONE',  ( 0.000000000000000000, 0.000000000000000000, 3.200000000000008171 ) ) ;
#223 = PERSON_AND_ORGANIZATION ( #90, #303 ) ;
#224 = CARTESIAN_POINT ( 'NONE',  ( 0.000000000000000000, 0.000000000000000000, 3.200000000000008171 ) ) ;
#225 = FACE_OUTER_BOUND ( 'NONE', #295, .T. ) ;
#226 = ORIENTED_EDGE ( 'NONE', *, *, #48, .T. ) ;
#227 = PERSON_AND_ORGANIZATION_ROLE ( 'creator' ) ;
#228 = CARTESIAN_POINT ( 'NONE',  ( 1.950000000000000400, 0.000000000000000000, 3.000000000000004441 ) ) ;
#229 = AXIS2_PLACEMENT_3D ( 'NONE', #79, #269, #56 ) ;
#230 = ORIENTED_EDGE ( 'NONE', *, *, #264, .F. ) ;
#231 = PERSON_AND_ORGANIZATION_ROLE ( 'design_supplier' ) ;
#232 = CARTESIAN_POINT ( 'NONE',  ( 0.000000000000000000, 0.000000000000000000, 3.200000000000008171 ) ) ;
#233 = APPLICATION_PROTOCOL_DEFINITION ( 'international standard', 'config_control_design', 1994, #43 ) ;
#234 = APPROVAL ( #206, 'NEURÈENÝ' ) ;
#235 = DIRECTION ( 'NONE',  ( 0.000000000000000000, 0.000000000000000000, 1.000000000000000000 ) ) ;
#236 = AXIS2_PLACEMENT_3D ( 'NONE', #11, #106, #75 ) ;
#237 = CC_DESIGN_APPROVAL ( #234, ( #22 ) ) ;
#238 = DIRECTION ( 'NONE',  ( 0.000000000000000000, 0.000000000000000000, 1.000000000000000000 ) ) ;
#239 = EDGE_LOOP ( 'NONE', ( #226, #201 ) ) ;
#240 = EDGE_CURVE ( 'NONE', #139, #307, #199, .T. ) ;
#241 = ORIENTED_EDGE ( 'NONE', *, *, #1, .T. ) ;
#242 = CIRCLE ( 'NONE', #2, 1.750000000000000222 ) ;
#243 = AXIS2_PLACEMENT_3D ( 'NONE', #286, #263, #188 ) ;
#244 = PERSON_AND_ORGANIZATION ( #90, #303 ) ;
#245 = DIRECTION ( 'NONE',  ( -1.000000000000000000, 0.000000000000000000, 0.000000000000000000 ) ) ;
#246 = DIRECTION ( 'NONE',  ( 0.000000000000000000, 0.000000000000000000, 1.000000000000000000 ) ) ;
#247 = CALENDAR_DATE ( 2022, 7, 7 ) ;
#248 = LINE ( 'NONE', #173, #157 ) ;
#249 = DIRECTION ( 'NONE',  ( 0.000000000000000000, 0.000000000000000000, 1.000000000000000000 ) ) ;
#250 = ORIENTED_EDGE ( 'NONE', *, *, #169, .F. ) ;
#251 = DIRECTION ( 'NONE',  ( 1.000000000000000000, 0.000000000000000000, 0.000000000000000000 ) ) ;
#252 = CARTESIAN_POINT ( 'NONE',  ( -3.500000000000000444, 0.000000000000000000, 3.000000000000000000 ) ) ;
#253 = LOCAL_TIME ( 14, 52, 34.00000000000000000, #176 ) ;
#254 = ORIENTED_EDGE ( 'NONE', *, *, #48, .F. ) ;
#255 = FACE_OUTER_BOUND ( 'NONE', #110, .T. ) ;
#256 = DATE_AND_TIME ( #247, #220 ) ;
#257 = DIRECTION ( 'NONE',  ( 1.000000000000000000, 0.000000000000000000, 0.000000000000000000 ) ) ;
#258 = EDGE_CURVE ( 'NONE', #139, #83, #50, .T. ) ;
#259 = CIRCLE ( 'NONE', #114, 1.750000000000000222 ) ;
#260 = PLANE ( 'NONE',  #76 ) ;
#261 = CIRCLE ( 'NONE', #66, 0.2000000000000000944 ) ;
#262 = CC_DESIGN_DATE_AND_TIME_ASSIGNMENT ( #256, #9, ( #181 ) ) ;
#263 = DIRECTION ( 'NONE',  ( -0.000000000000000000, -0.000000000000000000, -1.000000000000000000 ) ) ;
#264 = EDGE_CURVE ( 'NONE', #83, #139, #136, .T. ) ;
#265 = ORIENTED_EDGE ( 'NONE', *, *, #289, .T. ) ;
#266 = DATE_TIME_ROLE ( 'creation_date' ) ;
#267 = CIRCLE ( 'NONE', #210, 1.750000000000000222 ) ;
#268 = ADVANCED_FACE ( 'NONE', ( #53 ), #36, .T. ) ;
#269 = DIRECTION ( 'NONE',  ( 0.000000000000000000, 0.000000000000000000, 1.000000000000000000 ) ) ;
#270 = PERSON_AND_ORGANIZATION_ROLE ( 'design_owner' ) ;
#271 = CARTESIAN_POINT ( 'NONE',  ( 0.000000000000000000, 0.000000000000000000, 3.000000000000000000 ) ) ;
#272 = DIRECTION ( 'NONE',  ( 0.000000000000000000, 0.000000000000000000, 1.000000000000000000 ) ) ;
#273 = ORIENTED_EDGE ( 'NONE', *, *, #217, .T. ) ;
#274 = DIRECTION ( 'NONE',  ( 0.000000000000000000, 0.000000000000000000, 1.000000000000000000 ) ) ;
#275 = ORIENTED_EDGE ( 'NONE', *, *, #7, .F. ) ;
#276 = CARTESIAN_POINT ( 'NONE',  ( 1.750000000000000222, 2.143131898507868544E-16, 3.200000000000008171 ) ) ;
#277 = CALENDAR_DATE ( 2022, 7, 7 ) ;
#278 = AXIS2_PLACEMENT_3D ( 'NONE', #33, #272, #171 ) ;
#279 = DIRECTION ( 'NONE',  ( 1.000000000000000000, 0.000000000000000000, 0.000000000000000000 ) ) ;
#280 = ADVANCED_FACE ( 'NONE', ( #158 ), #260, .F. ) ;
#281 = PRODUCT_DEFINITION_SHAPE ( 'NONE', 'NONE',  #135 ) ;
#282 = DIRECTION ( 'NONE',  ( 1.000000000000000000, 0.000000000000000000, 0.000000000000000000 ) ) ;
#283 = APPROVAL ( #52, 'NEURÈENÝ' ) ;
#284 = AXIS2_PLACEMENT_3D ( 'NONE', #132, #154, #257 ) ;
#285 = VERTEX_POINT ( 'NONE', #23 ) ;
#286 = CARTESIAN_POINT ( 'NONE',  ( 0.000000000000000000, 0.000000000000000000, 163.0000000000000000 ) ) ;
#287 = ORIENTED_EDGE ( 'NONE', *, *, #289, .F. ) ;
#288 = LOCAL_TIME ( 14, 52, 34.00000000000000000, #54 ) ;
#289 = EDGE_CURVE ( 'NONE', #39, #307, #198, .T. ) ;
#290 = APPROVAL_DATE_TIME ( #144, #234 ) ;
#291 = COORDINATED_UNIVERSAL_TIME_OFFSET ( 1, 0, .AHEAD. ) ;
#292 = AXIS2_PLACEMENT_3D ( 'NONE', #126, #35, #293 ) ;
#293 = DIRECTION ( 'NONE',  ( -1.000000000000000000, 0.000000000000000000, 0.000000000000000000 ) ) ;
#294 = CARTESIAN_POINT ( 'NONE',  ( -3.500000000000000444, 0.000000000000000000, 3.000000000000000000 ) ) ;
#295 = EDGE_LOOP ( 'NONE', ( #298, #130, #190, #24 ) ) ;
#296 = PERSON_AND_ORGANIZATION ( #90, #303 ) ;
#297 = FACE_OUTER_BOUND ( 'NONE', #37, .T. ) ;
#298 = ORIENTED_EDGE ( 'NONE', *, *, #217, .F. ) ;
#299 = DIRECTION ( 'NONE',  ( -0.000000000000000000, -0.000000000000000000, -1.000000000000000000 ) ) ;
#300 = APPROVAL_DATE_TIME ( #153, #64 ) ;
#301 = FACE_BOUND ( 'NONE', #107, .T. ) ;
#302 = APPROVAL_DATE_TIME ( #74, #283 ) ;
#303 = ORGANIZATION ( 'NEURÈENÝ', 'NEURÈENÝ', '' ) ;
#304 = EDGE_CURVE ( 'NONE', #95, #127, #261, .T. ) ;
#305 = AXIS2_PLACEMENT_3D ( 'NONE', #120, #218, #159 ) ;
#306 = CARTESIAN_POINT ( 'NONE',  ( 0.000000000000000000, 0.000000000000000000, 0.000000000000000000 ) ) ;
#307 = VERTEX_POINT ( 'NONE', #68 ) ;
ENDSEC;
END-ISO-10303-21;
