ISO-10303-21;
HEADER;
FILE_DESCRIPTION (( 'STEP AP203' ),
    '1' );
FILE_NAME ('8970.STEP',
    '2022-07-07T12:38:48',
    ( '' ),
    ( '' ),
    'SwSTEP 2.0',
    'SolidWorks 2019',
    '' );
FILE_SCHEMA (( 'CONFIG_CONTROL_DESIGN' ));
ENDSEC;

DATA;
#1 = CC_DESIGN_PERSON_AND_ORGANIZATION_ASSIGNMENT ( #81, #243, ( #22 ) ) ;
#2 = DATE_AND_TIME ( #211, #34 ) ;
#3 = AXIS2_PLACEMENT_3D ( 'NONE', #249, #111, #195 ) ;
#4 = CARTESIAN_POINT ( 'NONE',  ( 0.000000000000000000, 0.000000000000000000, 5.200000000000009948 ) ) ;
#5 = APPROVAL ( #25, 'NEURÈENÝ' ) ;
#6 = AXIS2_PLACEMENT_3D ( 'NONE', #20, #18, #137 ) ;
#7 = EDGE_LOOP ( 'NONE', ( #141, #217, #65, #145 ) ) ;
#8 = CIRCLE ( 'NONE', #183, 3.250000000000000444 ) ;
#9 = CARTESIAN_POINT ( 'NONE',  ( 0.000000000000000000, 0.000000000000000000, 5.000000000000000000 ) ) ;
#10 = DIRECTION ( 'NONE',  ( 0.000000000000000000, 0.000000000000000000, 1.000000000000000000 ) ) ;
#11 = ORIENTED_EDGE ( 'NONE', *, *, #42, .T. ) ;
#12 = DIRECTION ( 'NONE',  ( 1.000000000000000000, 0.000000000000000000, 0.000000000000000000 ) ) ;
#13 = ADVANCED_FACE ( 'NONE', ( #205 ), #23, .F. ) ;
#14 = DIRECTION ( 'NONE',  ( 0.000000000000000000, 0.000000000000000000, 1.000000000000000000 ) ) ;
#15 = PERSON_AND_ORGANIZATION ( #19, #95 ) ;
#16 = EDGE_CURVE ( 'NONE', #213, #98, #76, .T. ) ;
#17 = CYLINDRICAL_SURFACE ( 'NONE', #99, 3.250000000000000444 ) ;
#18 = DIRECTION ( 'NONE',  ( -0.000000000000000000, -0.000000000000000000, -1.000000000000000000 ) ) ;
#19 = PERSON ( 'NEURÈENÝ', 'NEURÈENÝ', 'NEURÈENÝ', ('NEURÈENÝ'), ('NEURÈENÝ'), ('NEURÈENÝ') ) ;
#20 = CARTESIAN_POINT ( 'NONE',  ( 0.000000000000000000, 0.000000000000000000, 5.000000000000000000 ) ) ;
#21 = VERTEX_POINT ( 'NONE', #47 ) ;
#22 = PRODUCT_DEFINITION_FORMATION_WITH_SPECIFIED_SOURCE ( 'LIBOVOLNÝ', '', #235, .NOT_KNOWN. ) ;
#23 = PLANE ( 'NONE',  #40 ) ;
#24 = CC_DESIGN_SECURITY_CLASSIFICATION ( #248, ( #22 ) ) ;
#25 = APPROVAL_STATUS ( 'not_yet_approved' ) ;
#26 = PERSON_AND_ORGANIZATION ( #19, #95 ) ;
#27 = CLOSED_SHELL ( 'NONE', ( #276, #45, #305, #51, #186, #13, #222, #94, #177 ) ) ;
#28 = CARTESIAN_POINT ( 'NONE',  ( 0.000000000000000000, 0.000000000000000000, 0.000000000000000000 ) ) ;
#29 = COORDINATED_UNIVERSAL_TIME_OFFSET ( 1, 0, .AHEAD. ) ;
#30 = ORIENTED_EDGE ( 'NONE', *, *, #260, .T. ) ;
#31 = DIRECTION ( 'NONE',  ( 1.000000000000000000, 0.000000000000000000, 0.000000000000000000 ) ) ;
#32 = COORDINATED_UNIVERSAL_TIME_OFFSET ( 1, 0, .AHEAD. ) ;
#33 = VERTEX_POINT ( 'NONE', #142 ) ;
#34 = LOCAL_TIME ( 14, 38, 48.00000000000000000, #29 ) ;
#35 = DIRECTION ( 'NONE',  ( 0.000000000000000000, 0.000000000000000000, 1.000000000000000000 ) ) ;
#36 = DIRECTION ( 'NONE',  ( 1.000000000000000000, 0.000000000000000000, 0.000000000000000000 ) ) ;
#37 = DATE_AND_TIME ( #135, #293 ) ;
#38 = UNCERTAINTY_MEASURE_WITH_UNIT (LENGTH_MEASURE( 1.000000000000000082E-05 ), #238, 'distance_accuracy_value', 'NONE');
#39 = EDGE_CURVE ( 'NONE', #230, #21, #104, .T. ) ;
#40 = AXIS2_PLACEMENT_3D ( 'NONE', #306, #93, #187 ) ;
#41 = CYLINDRICAL_SURFACE ( 'NONE', #277, 6.000000000000000888 ) ;
#42 = EDGE_CURVE ( 'NONE', #21, #294, #189, .T. ) ;
#43 = DIRECTION ( 'NONE',  ( -0.000000000000000000, -0.000000000000000000, -1.000000000000000000 ) ) ;
#44 = CIRCLE ( 'NONE', #48, 6.000000000000000888 ) ;
#45 = ADVANCED_FACE ( 'NONE', ( #63 ), #17, .T. ) ;
#46 = ORIENTED_EDGE ( 'NONE', *, *, #201, .F. ) ;
#47 = CARTESIAN_POINT ( 'NONE',  ( -3.450000000000000178, 4.225031457058368824E-16, 5.000000000000005329 ) ) ;
#48 = AXIS2_PLACEMENT_3D ( 'NONE', #178, #295, #12 ) ;
#49 = DIRECTION ( 'NONE',  ( -1.000000000000000000, 0.000000000000000000, 0.000000000000000000 ) ) ;
#50 = APPROVAL_STATUS ( 'not_yet_approved' ) ;
#51 = ADVANCED_FACE ( 'NONE', ( #224 ), #41, .T. ) ;
#52 = CARTESIAN_POINT ( 'NONE',  ( 3.450000000000000178, 0.000000000000000000, 5.000000000000005329 ) ) ;
#53 = VERTEX_POINT ( 'NONE', #88 ) ;
#54 = PERSON_AND_ORGANIZATION ( #19, #95 ) ;
#55 = EDGE_LOOP ( 'NONE', ( #254, #208 ) ) ;
#56 = DIRECTION ( 'NONE',  ( 1.000000000000000000, 0.000000000000000000, -0.000000000000000000 ) ) ;
#57 = DIRECTION ( 'NONE',  ( -0.000000000000000000, -0.000000000000000000, -1.000000000000000000 ) ) ;
#58 = PERSON_AND_ORGANIZATION ( #19, #95 ) ;
#59 = AXIS2_PLACEMENT_3D ( 'NONE', #133, #79, #31 ) ;
#60 = CC_DESIGN_APPROVAL ( #160, ( #248 ) ) ;
#61 = FACE_OUTER_BOUND ( 'NONE', #167, .T. ) ;
#62 = LINE ( 'NONE', #112, #279 ) ;
#63 = FACE_OUTER_BOUND ( 'NONE', #225, .T. ) ;
#64 = DIRECTION ( 'NONE',  ( 1.000000000000000000, 0.000000000000000000, -0.000000000000000000 ) ) ;
#65 = ORIENTED_EDGE ( 'NONE', *, *, #297, .T. ) ;
#66 = DIRECTION ( 'NONE',  ( 0.000000000000000000, 0.000000000000000000, 1.000000000000000000 ) ) ;
#67 = AXIS2_PLACEMENT_3D ( 'NONE', #274, #35, #270 ) ;
#68 = ORIENTED_EDGE ( 'NONE', *, *, #180, .F. ) ;
#69 =( NAMED_UNIT ( * ) SI_UNIT ( $, .STERADIAN. ) SOLID_ANGLE_UNIT ( ) );
#70 = VECTOR ( 'NONE', #43, 1000.000000000000000 ) ;
#71 = AXIS2_PLACEMENT_3D ( 'NONE', #288, #97, #49 ) ;
#72 = APPROVAL_PERSON_ORGANIZATION ( #292, #5, #122 ) ;
#73 = ORIENTED_EDGE ( 'NONE', *, *, #74, .T. ) ;
#74 = EDGE_CURVE ( 'NONE', #213, #230, #252, .T. ) ;
#75 = CARTESIAN_POINT ( 'NONE',  ( 0.000000000000000000, 0.000000000000000000, 0.000000000000000000 ) ) ;
#76 = CIRCLE ( 'NONE', #229, 3.250000000000000444 ) ;
#77 = CALENDAR_DATE ( 2022, 7, 7 ) ;
#78 = ORIENTED_EDGE ( 'NONE', *, *, #297, .F. ) ;
#79 = DIRECTION ( 'NONE',  ( 0.000000000000000000, 0.000000000000000000, 1.000000000000000000 ) ) ;
#80 = CARTESIAN_POINT ( 'NONE',  ( 0.000000000000000000, 0.000000000000000000, 255.0000000000000000 ) ) ;
#81 = PERSON_AND_ORGANIZATION ( #19, #95 ) ;
#82 = DIRECTION ( 'NONE',  ( 0.000000000000000000, 0.000000000000000000, 1.000000000000000000 ) ) ;
#83 = DIRECTION ( 'NONE',  ( -1.000000000000000000, 0.000000000000000000, 0.000000000000000000 ) ) ;
#84 = TOROIDAL_SURFACE ( 'NONE', #67, 3.450000000000000178, 0.2000000000000000111 ) ;
#85 = DESIGN_CONTEXT ( 'detailed design', #291, 'design' ) ;
#86 = PRODUCT_RELATED_PRODUCT_CATEGORY ( 'detail', '', ( #235 ) ) ;
#87 = ORIENTED_EDGE ( 'NONE', *, *, #239, .F. ) ;
#88 = CARTESIAN_POINT ( 'NONE',  ( -6.000000000000000888, 0.000000000000000000, 5.000000000000000000 ) ) ;
#89 = EDGE_CURVE ( 'NONE', #53, #227, #116, .T. ) ;
#90 = AXIS2_PLACEMENT_3D ( 'NONE', #198, #107, #56 ) ;
#91 = CARTESIAN_POINT ( 'NONE',  ( -6.000000000000000888, 0.000000000000000000, 5.000000000000000000 ) ) ;
#92 = ORIENTED_EDGE ( 'NONE', *, *, #232, .F. ) ;
#93 = DIRECTION ( 'NONE',  ( 0.000000000000000000, 0.000000000000000000, 1.000000000000000000 ) ) ;
#94 = ADVANCED_FACE ( 'NONE', ( #253 ), #302, .T. ) ;
#95 = ORGANIZATION ( 'NEURÈENÝ', 'NEURÈENÝ', '' ) ;
#96 = MANIFOLD_SOLID_BREP ( 'Zaoblit1', #27 ) ;
#97 = DIRECTION ( 'NONE',  ( -0.000000000000000000, -0.000000000000000000, -1.000000000000000000 ) ) ;
#98 = VERTEX_POINT ( 'NONE', #299 ) ;
#99 = AXIS2_PLACEMENT_3D ( 'NONE', #278, #281, #115 ) ;
#100 = PERSON_AND_ORGANIZATION ( #19, #95 ) ;
#101 = DIRECTION ( 'NONE',  ( 0.000000000000000000, 0.000000000000000000, 1.000000000000000000 ) ) ;
#102 = CALENDAR_DATE ( 2022, 7, 7 ) ;
#103 = PRODUCT_DEFINITION ( 'NEZNÁMÝ', '', #22, #85 ) ;
#104 = CIRCLE ( 'NONE', #251, 0.2000000000000000944 ) ;
#105 = ORIENTED_EDGE ( 'NONE', *, *, #233, .T. ) ;
#106 = AXIS2_PLACEMENT_3D ( 'NONE', #162, #199, #271 ) ;
#107 = DIRECTION ( 'NONE',  ( 0.000000000000000000, 0.000000000000000000, 1.000000000000000000 ) ) ;
#108 = CARTESIAN_POINT ( 'NONE',  ( 3.250000000000000444, 3.980102097228898231E-16, 5.200000000000009948 ) ) ;
#109 = PERSON_AND_ORGANIZATION_ROLE ( 'classification_officer' ) ;
#110 = ORIENTED_EDGE ( 'NONE', *, *, #132, .F. ) ;
#111 = DIRECTION ( 'NONE',  ( -0.000000000000000000, -0.000000000000000000, -1.000000000000000000 ) ) ;
#112 = CARTESIAN_POINT ( 'NONE',  ( 6.000000000000000888, 7.347880794884120722E-16, 5.000000000000000000 ) ) ;
#113 = SHAPE_DEFINITION_REPRESENTATION ( #289, #268 ) ;
#114 = CIRCLE ( 'NONE', #106, 6.000000000000000888 ) ;
#115 = DIRECTION ( 'NONE',  ( -1.000000000000000000, 0.000000000000000000, 0.000000000000000000 ) ) ;
#116 = LINE ( 'NONE', #91, #200 ) ;
#117 = AXIS2_PLACEMENT_3D ( 'NONE', #75, #101, #126 ) ;
#118 = ORIENTED_EDGE ( 'NONE', *, *, #233, .F. ) ;
#119 = LOCAL_TIME ( 14, 38, 48.00000000000000000, #32 ) ;
#120 = ORIENTED_EDGE ( 'NONE', *, *, #260, .F. ) ;
#121 = APPROVAL_PERSON_ORGANIZATION ( #261, #228, #148 ) ;
#122 = APPROVAL_ROLE ( '' ) ;
#123 = APPROVAL_DATE_TIME ( #2, #228 ) ;
#124 = LOCAL_TIME ( 14, 38, 48.00000000000000000, #169 ) ;
#125 = DIRECTION ( 'NONE',  ( 1.000000000000000000, 0.000000000000000000, 0.000000000000000000 ) ) ;
#126 = DIRECTION ( 'NONE',  ( 1.000000000000000000, 0.000000000000000000, 0.000000000000000000 ) ) ;
#127 = ORIENTED_EDGE ( 'NONE', *, *, #239, .T. ) ;
#128 = CARTESIAN_POINT ( 'NONE',  ( 6.000000000000000888, 7.347880794884120722E-16, 0.000000000000000000 ) ) ;
#129 = CARTESIAN_POINT ( 'NONE',  ( 3.450000000000000178, 0.000000000000000000, 5.200000000000009948 ) ) ;
#130 = CIRCLE ( 'NONE', #210, 0.1999999999999996503 ) ;
#131 = EDGE_LOOP ( 'NONE', ( #46, #157, #73, #30 ) ) ;
#132 = EDGE_CURVE ( 'NONE', #53, #33, #144, .T. ) ;
#133 = CARTESIAN_POINT ( 'NONE',  ( 0.000000000000000000, 0.000000000000000000, 5.200000000000009948 ) ) ;
#134 = FACE_OUTER_BOUND ( 'NONE', #197, .T. ) ;
#135 = CALENDAR_DATE ( 2022, 7, 7 ) ;
#136 = CARTESIAN_POINT ( 'NONE',  ( -3.250000000000000444, 0.000000000000000000, 255.0000000000000000 ) ) ;
#137 = DIRECTION ( 'NONE',  ( 1.000000000000000000, 0.000000000000000000, 0.000000000000000000 ) ) ;
#138 = CARTESIAN_POINT ( 'NONE',  ( -3.450000000000000178, 4.225031457058368824E-16, 5.200000000000009948 ) ) ;
#139 = AXIS2_PLACEMENT_3D ( 'NONE', #9, #82, #161 ) ;
#140 = CIRCLE ( 'NONE', #3, 3.450000000000000178 ) ;
#141 = ORIENTED_EDGE ( 'NONE', *, *, #143, .F. ) ;
#142 = CARTESIAN_POINT ( 'NONE',  ( 6.000000000000000888, 7.347880794884120722E-16, 5.000000000000000000 ) ) ;
#143 = EDGE_CURVE ( 'NONE', #33, #53, #44, .T. ) ;
#144 = CIRCLE ( 'NONE', #139, 6.000000000000000888 ) ;
#145 = ORIENTED_EDGE ( 'NONE', *, *, #89, .F. ) ;
#146 = TOROIDAL_SURFACE ( 'NONE', #215, 3.450000000000000178, 0.2000000000000000111 ) ;
#147 = AXIS2_PLACEMENT_3D ( 'NONE', #246, #14, #36 ) ;
#148 = APPROVAL_ROLE ( '' ) ;
#149 = APPLICATION_PROTOCOL_DEFINITION ( 'international standard', 'config_control_design', 1994, #257 ) ;
#150 = PERSON_AND_ORGANIZATION_ROLE ( 'creator' ) ;
#151 = EDGE_CURVE ( 'NONE', #259, #230, #212, .T. ) ;
#152 =( GEOMETRIC_REPRESENTATION_CONTEXT ( 3 ) GLOBAL_UNCERTAINTY_ASSIGNED_CONTEXT ( ( #38 ) ) GLOBAL_UNIT_ASSIGNED_CONTEXT ( ( #238, #286, #69 ) ) REPRESENTATION_CONTEXT ( 'NONE', 'WORKASPACE' ) );
#153 = DIRECTION ( 'NONE',  ( 1.000000000000000000, 0.000000000000000000, 0.000000000000000000 ) ) ;
#154 = ORIENTED_EDGE ( 'NONE', *, *, #16, .T. ) ;
#155 = CYLINDRICAL_SURFACE ( 'NONE', #236, 3.250000000000000444 ) ;
#156 = APPROVAL_DATE_TIME ( #247, #160 ) ;
#157 = ORIENTED_EDGE ( 'NONE', *, *, #16, .F. ) ;
#158 = DIRECTION ( 'NONE',  ( -0.000000000000000000, -0.000000000000000000, -1.000000000000000000 ) ) ;
#159 = APPROVAL_DATE_TIME ( #37, #5 ) ;
#160 = APPROVAL ( #192, 'NEURÈENÝ' ) ;
#161 = DIRECTION ( 'NONE',  ( 1.000000000000000000, 0.000000000000000000, 0.000000000000000000 ) ) ;
#162 = CARTESIAN_POINT ( 'NONE',  ( 0.000000000000000000, 0.000000000000000000, 0.000000000000000000 ) ) ;
#163 = CC_DESIGN_PERSON_AND_ORGANIZATION_ASSIGNMENT ( #26, #209, ( #235 ) ) ;
#164 = APPROVAL_PERSON_ORGANIZATION ( #15, #160, #290 ) ;
#165 = CARTESIAN_POINT ( 'NONE',  ( 0.000000000000000000, 0.000000000000000000, 5.000000000000000000 ) ) ;
#166 = DIRECTION ( 'NONE',  ( 0.000000000000000000, 0.000000000000000000, 1.000000000000000000 ) ) ;
#167 = EDGE_LOOP ( 'NONE', ( #304, #287, #127, #185 ) ) ;
#168 = ORIENTED_EDGE ( 'NONE', *, *, #39, .T. ) ;
#169 = COORDINATED_UNIVERSAL_TIME_OFFSET ( 1, 0, .AHEAD. ) ;
#170 = MECHANICAL_CONTEXT ( 'NONE', #257, 'mechanical' ) ;
#171 = CC_DESIGN_PERSON_AND_ORGANIZATION_ASSIGNMENT ( #54, #221, ( #22 ) ) ;
#172 = VERTEX_POINT ( 'NONE', #128 ) ;
#173 = CALENDAR_DATE ( 2022, 7, 7 ) ;
#174 = EDGE_LOOP ( 'NONE', ( #92, #110, #181, #105 ) ) ;
#175 = FACE_OUTER_BOUND ( 'NONE', #55, .T. ) ;
#176 = CARTESIAN_POINT ( 'NONE',  ( -3.250000000000000444, 0.000000000000000000, 255.0000000000000000 ) ) ;
#177 = ADVANCED_FACE ( 'NONE', ( #61 ), #84, .F. ) ;
#178 = CARTESIAN_POINT ( 'NONE',  ( 0.000000000000000000, 0.000000000000000000, 5.000000000000000000 ) ) ;
#179 = CARTESIAN_POINT ( 'NONE',  ( -6.000000000000000888, 0.000000000000000000, 0.000000000000000000 ) ) ;
#180 = EDGE_CURVE ( 'NONE', #294, #21, #140, .T. ) ;
#181 = ORIENTED_EDGE ( 'NONE', *, *, #89, .T. ) ;
#182 = DIRECTION ( 'NONE',  ( -1.000000000000000000, 1.224646799147350742E-16, 0.000000000000000000 ) ) ;
#183 = AXIS2_PLACEMENT_3D ( 'NONE', #216, #10, #220 ) ;
#184 = CARTESIAN_POINT ( 'NONE',  ( 0.000000000000000000, 0.000000000000000000, 255.0000000000000000 ) ) ;
#185 = ORIENTED_EDGE ( 'NONE', *, *, #42, .F. ) ;
#186 = ADVANCED_FACE ( 'NONE', ( #241, #175 ), #214, .T. ) ;
#187 = DIRECTION ( 'NONE',  ( 1.000000000000000000, 0.000000000000000000, -0.000000000000000000 ) ) ;
#188 = DIRECTION ( 'NONE',  ( 0.000000000000000000, 0.000000000000000000, 1.000000000000000000 ) ) ;
#189 = CIRCLE ( 'NONE', #6, 3.450000000000000178 ) ;
#190 = ORIENTED_EDGE ( 'NONE', *, *, #151, .T. ) ;
#191 = DATE_AND_TIME ( #102, #207 ) ;
#192 = APPROVAL_STATUS ( 'not_yet_approved' ) ;
#193 = COORDINATED_UNIVERSAL_TIME_OFFSET ( 1, 0, .AHEAD. ) ;
#194 = EDGE_LOOP ( 'NONE', ( #154, #269 ) ) ;
#195 = DIRECTION ( 'NONE',  ( 1.000000000000000000, 0.000000000000000000, 0.000000000000000000 ) ) ;
#196 = FACE_OUTER_BOUND ( 'NONE', #131, .T. ) ;
#197 = EDGE_LOOP ( 'NONE', ( #120, #168, #68, #87 ) ) ;
#198 = CARTESIAN_POINT ( 'NONE',  ( 0.000000000000000000, 0.000000000000000000, 5.000000000000000000 ) ) ;
#199 = DIRECTION ( 'NONE',  ( 0.000000000000000000, 0.000000000000000000, 1.000000000000000000 ) ) ;
#200 = VECTOR ( 'NONE', #203, 1000.000000000000000 ) ;
#201 = EDGE_CURVE ( 'NONE', #98, #259, #245, .T. ) ;
#202 = DIRECTION ( 'NONE',  ( -0.000000000000000000, -0.000000000000000000, -1.000000000000000000 ) ) ;
#203 = DIRECTION ( 'NONE',  ( -0.000000000000000000, -0.000000000000000000, -1.000000000000000000 ) ) ;
#204 = EDGE_LOOP ( 'NONE', ( #298, #11 ) ) ;
#205 = FACE_OUTER_BOUND ( 'NONE', #244, .T. ) ;
#206 = VECTOR ( 'NONE', #300, 1000.000000000000000 ) ;
#207 = LOCAL_TIME ( 14, 38, 48.00000000000000000, #193 ) ;
#208 = ORIENTED_EDGE ( 'NONE', *, *, #143, .T. ) ;
#209 = PERSON_AND_ORGANIZATION_ROLE ( 'design_owner' ) ;
#210 = AXIS2_PLACEMENT_3D ( 'NONE', #129, #296, #242 ) ;
#211 = CALENDAR_DATE ( 2022, 7, 7 ) ;
#212 = CIRCLE ( 'NONE', #59, 3.250000000000000444 ) ;
#213 = VERTEX_POINT ( 'NONE', #176 ) ;
#214 = PLANE ( 'NONE',  #90 ) ;
#215 = AXIS2_PLACEMENT_3D ( 'NONE', #4, #188, #153 ) ;
#216 = CARTESIAN_POINT ( 'NONE',  ( 0.000000000000000000, 0.000000000000000000, 255.0000000000000000 ) ) ;
#217 = ORIENTED_EDGE ( 'NONE', *, *, #232, .T. ) ;
#218 = CARTESIAN_POINT ( 'NONE',  ( 3.250000000000000444, 3.980102097228898231E-16, 255.0000000000000000 ) ) ;
#219 = CC_DESIGN_PERSON_AND_ORGANIZATION_ASSIGNMENT ( #100, #150, ( #103 ) ) ;
#220 = DIRECTION ( 'NONE',  ( 1.000000000000000000, 0.000000000000000000, 0.000000000000000000 ) ) ;
#221 = PERSON_AND_ORGANIZATION_ROLE ( 'design_supplier' ) ;
#222 = ADVANCED_FACE ( 'NONE', ( #196 ), #155, .T. ) ;
#223 = DIRECTION ( 'NONE',  ( 1.224646799147353207E-16, 1.000000000000000000, -0.000000000000000000 ) ) ;
#224 = FACE_OUTER_BOUND ( 'NONE', #174, .T. ) ;
#225 = EDGE_LOOP ( 'NONE', ( #282, #265, #190, #240 ) ) ;
#226 = CC_DESIGN_APPROVAL ( #5, ( #22 ) ) ;
#227 = VERTEX_POINT ( 'NONE', #179 ) ;
#228 = APPROVAL ( #50, 'NEURÈENÝ' ) ;
#229 = AXIS2_PLACEMENT_3D ( 'NONE', #283, #66, #256 ) ;
#230 = VERTEX_POINT ( 'NONE', #275 ) ;
#231 = DATE_TIME_ROLE ( 'creation_date' ) ;
#232 = EDGE_CURVE ( 'NONE', #33, #172, #62, .T. ) ;
#233 = EDGE_CURVE ( 'NONE', #227, #172, #114, .T. ) ;
#234 = CYLINDRICAL_SURFACE ( 'NONE', #71, 6.000000000000000888 ) ;
#235 = PRODUCT ( '8970', '8970', '', ( #170 ) ) ;
#236 = AXIS2_PLACEMENT_3D ( 'NONE', #80, #57, #83 ) ;
#237 = SECURITY_CLASSIFICATION_LEVEL ( 'unclassified' ) ;
#238 =( LENGTH_UNIT ( ) NAMED_UNIT ( * ) SI_UNIT ( .MILLI., .METRE. ) );
#239 = EDGE_CURVE ( 'NONE', #259, #294, #130, .T. ) ;
#240 = ORIENTED_EDGE ( 'NONE', *, *, #74, .F. ) ;
#241 = FACE_BOUND ( 'NONE', #204, .T. ) ;
#242 = DIRECTION ( 'NONE',  ( 0.000000000000000000, 0.000000000000000000, -1.000000000000000000 ) ) ;
#243 = PERSON_AND_ORGANIZATION_ROLE ( 'creator' ) ;
#244 = EDGE_LOOP ( 'NONE', ( #118, #78 ) ) ;
#245 = LINE ( 'NONE', #218, #206 ) ;
#246 = CARTESIAN_POINT ( 'NONE',  ( 0.000000000000000000, 0.000000000000000000, 5.200000000000009948 ) ) ;
#247 = DATE_AND_TIME ( #173, #124 ) ;
#248 = SECURITY_CLASSIFICATION ( '', '', #237 ) ;
#249 = CARTESIAN_POINT ( 'NONE',  ( 0.000000000000000000, 0.000000000000000000, 5.000000000000000000 ) ) ;
#250 = EDGE_CURVE ( 'NONE', #98, #213, #8, .T. ) ;
#251 = AXIS2_PLACEMENT_3D ( 'NONE', #138, #223, #182 ) ;
#252 = LINE ( 'NONE', #136, #70 ) ;
#253 = FACE_OUTER_BOUND ( 'NONE', #194, .T. ) ;
#254 = ORIENTED_EDGE ( 'NONE', *, *, #132, .T. ) ;
#255 = CC_DESIGN_APPROVAL ( #228, ( #103 ) ) ;
#256 = DIRECTION ( 'NONE',  ( 1.000000000000000000, 0.000000000000000000, 0.000000000000000000 ) ) ;
#257 = APPLICATION_CONTEXT ( 'configuration controlled 3d designs of mechanical parts and assemblies' ) ;
#258 = CC_DESIGN_PERSON_AND_ORGANIZATION_ASSIGNMENT ( #58, #109, ( #248 ) ) ;
#259 = VERTEX_POINT ( 'NONE', #108 ) ;
#260 = EDGE_CURVE ( 'NONE', #230, #259, #280, .T. ) ;
#261 = PERSON_AND_ORGANIZATION ( #19, #95 ) ;
#262 = CC_DESIGN_DATE_AND_TIME_ASSIGNMENT ( #272, #266, ( #248 ) ) ;
#263 = APPLICATION_PROTOCOL_DEFINITION ( 'international standard', 'config_control_design', 1994, #291 ) ;
#264 = DIRECTION ( 'NONE',  ( 0.000000000000000000, 0.000000000000000000, 1.000000000000000000 ) ) ;
#265 = ORIENTED_EDGE ( 'NONE', *, *, #201, .T. ) ;
#266 = DATE_TIME_ROLE ( 'classification_date' ) ;
#267 = CC_DESIGN_DATE_AND_TIME_ASSIGNMENT ( #191, #231, ( #103 ) ) ;
#268 = ADVANCED_BREP_SHAPE_REPRESENTATION ( '8970', ( #96, #117 ), #152 ) ;
#269 = ORIENTED_EDGE ( 'NONE', *, *, #250, .T. ) ;
#270 = DIRECTION ( 'NONE',  ( 1.000000000000000000, 0.000000000000000000, 0.000000000000000000 ) ) ;
#271 = DIRECTION ( 'NONE',  ( 1.000000000000000000, 0.000000000000000000, 0.000000000000000000 ) ) ;
#272 = DATE_AND_TIME ( #77, #119 ) ;
#273 = AXIS2_PLACEMENT_3D ( 'NONE', #184, #166, #64 ) ;
#274 = CARTESIAN_POINT ( 'NONE',  ( 0.000000000000000000, 0.000000000000000000, 5.200000000000009948 ) ) ;
#275 = CARTESIAN_POINT ( 'NONE',  ( -3.250000000000000444, 0.000000000000000000, 5.200000000000009948 ) ) ;
#276 = ADVANCED_FACE ( 'NONE', ( #134 ), #146, .F. ) ;
#277 = AXIS2_PLACEMENT_3D ( 'NONE', #165, #202, #301 ) ;
#278 = CARTESIAN_POINT ( 'NONE',  ( 0.000000000000000000, 0.000000000000000000, 255.0000000000000000 ) ) ;
#279 = VECTOR ( 'NONE', #158, 1000.000000000000000 ) ;
#280 = CIRCLE ( 'NONE', #147, 3.250000000000000444 ) ;
#281 = DIRECTION ( 'NONE',  ( -0.000000000000000000, -0.000000000000000000, -1.000000000000000000 ) ) ;
#282 = ORIENTED_EDGE ( 'NONE', *, *, #250, .F. ) ;
#283 = CARTESIAN_POINT ( 'NONE',  ( 0.000000000000000000, 0.000000000000000000, 255.0000000000000000 ) ) ;
#284 = CIRCLE ( 'NONE', #303, 6.000000000000000888 ) ;
#285 = FACE_OUTER_BOUND ( 'NONE', #7, .T. ) ;
#286 =( NAMED_UNIT ( * ) PLANE_ANGLE_UNIT ( ) SI_UNIT ( $, .RADIAN. ) );
#287 = ORIENTED_EDGE ( 'NONE', *, *, #151, .F. ) ;
#288 = CARTESIAN_POINT ( 'NONE',  ( 0.000000000000000000, 0.000000000000000000, 5.000000000000000000 ) ) ;
#289 = PRODUCT_DEFINITION_SHAPE ( 'NONE', 'NONE',  #103 ) ;
#290 = APPROVAL_ROLE ( '' ) ;
#291 = APPLICATION_CONTEXT ( 'configuration controlled 3d designs of mechanical parts and assemblies' ) ;
#292 = PERSON_AND_ORGANIZATION ( #19, #95 ) ;
#293 = LOCAL_TIME ( 14, 38, 48.00000000000000000, #307 ) ;
#294 = VERTEX_POINT ( 'NONE', #52 ) ;
#295 = DIRECTION ( 'NONE',  ( 0.000000000000000000, 0.000000000000000000, 1.000000000000000000 ) ) ;
#296 = DIRECTION ( 'NONE',  ( 0.000000000000000000, -1.000000000000000000, 0.000000000000000000 ) ) ;
#297 = EDGE_CURVE ( 'NONE', #172, #227, #284, .T. ) ;
#298 = ORIENTED_EDGE ( 'NONE', *, *, #180, .T. ) ;
#299 = CARTESIAN_POINT ( 'NONE',  ( 3.250000000000000444, 3.980102097228898231E-16, 255.0000000000000000 ) ) ;
#300 = DIRECTION ( 'NONE',  ( -0.000000000000000000, -0.000000000000000000, -1.000000000000000000 ) ) ;
#301 = DIRECTION ( 'NONE',  ( -1.000000000000000000, 0.000000000000000000, 0.000000000000000000 ) ) ;
#302 = PLANE ( 'NONE',  #273 ) ;
#303 = AXIS2_PLACEMENT_3D ( 'NONE', #28, #264, #125 ) ;
#304 = ORIENTED_EDGE ( 'NONE', *, *, #39, .F. ) ;
#305 = ADVANCED_FACE ( 'NONE', ( #285 ), #234, .T. ) ;
#306 = CARTESIAN_POINT ( 'NONE',  ( 0.000000000000000000, 0.000000000000000000, 0.000000000000000000 ) ) ;
#307 = COORDINATED_UNIVERSAL_TIME_OFFSET ( 1, 0, .AHEAD. ) ;
ENDSEC;
END-ISO-10303-21;
