ISO-10303-21;
HEADER;
FILE_DESCRIPTION (( 'STEP AP203' ),
    '1' );
FILE_NAME ('8500.STEP',
    '2022-06-30T20:25:11',
    ( '' ),
    ( '' ),
    'SwSTEP 2.0',
    'SolidWorks 2019',
    '' );
FILE_SCHEMA (( 'CONFIG_CONTROL_DESIGN' ));
ENDSEC;

DATA;
#1 = VERTEX_POINT ( 'NONE', #253 ) ;
#2 = ORIENTED_EDGE ( 'NONE', *, *, #181, .F. ) ;
#3 = DIRECTION ( 'NONE',  ( 1.000000000000000000, 0.000000000000000000, 0.000000000000000000 ) ) ;
#4 = VERTEX_POINT ( 'NONE', #182 ) ;
#5 = PRODUCT_RELATED_PRODUCT_CATEGORY ( 'detail', '', ( #55 ) ) ;
#6 = CARTESIAN_POINT ( 'NONE',  ( 0.000000000000000000, 0.000000000000000000, 102.0000000000000142 ) ) ;
#7 = DESIGN_CONTEXT ( 'detailed design', #211, 'design' ) ;
#8 = CYLINDRICAL_SURFACE ( 'NONE', #245, 1.000000000000000000 ) ;
#9 = DIRECTION ( 'NONE',  ( -0.000000000000000000, -0.000000000000000000, -1.000000000000000000 ) ) ;
#10 = CC_DESIGN_PERSON_AND_ORGANIZATION_ASSIGNMENT ( #75, #131, ( #172 ) ) ;
#11 = APPROVAL_ROLE ( '' ) ;
#12 = LOCAL_TIME ( 22, 25, 11.00000000000000000, #155 ) ;
#13 = CIRCLE ( 'NONE', #235, 2.000000000000000000 ) ;
#14 = APPROVAL_PERSON_ORGANIZATION ( #50, #173, #209 ) ;
#15 = DATE_AND_TIME ( #190, #159 ) ;
#16 = EDGE_CURVE ( 'NONE', #54, #134, #223, .T. ) ;
#17 = APPROVAL_ROLE ( '' ) ;
#18 = ORIENTED_EDGE ( 'NONE', *, *, #16, .F. ) ;
#19 = CALENDAR_DATE ( 2022, 30, 6 ) ;
#20 = EDGE_CURVE ( 'NONE', #137, #4, #143, .T. ) ;
#21 = ORIENTED_EDGE ( 'NONE', *, *, #149, .T. ) ;
#22 = VECTOR ( 'NONE', #145, 1000.000000000000000 ) ;
#23 = CYLINDRICAL_SURFACE ( 'NONE', #62, 2.000000000000000000 ) ;
#24 = ORIENTED_EDGE ( 'NONE', *, *, #226, .T. ) ;
#25 = ORIENTED_EDGE ( 'NONE', *, *, #107, .F. ) ;
#26 = CIRCLE ( 'NONE', #169, 2.000000000000000000 ) ;
#27 = AXIS2_PLACEMENT_3D ( 'NONE', #124, #202, #32 ) ;
#28 = DIRECTION ( 'NONE',  ( 1.000000000000000000, 0.000000000000000000, 0.000000000000000000 ) ) ;
#29 = CARTESIAN_POINT ( 'NONE',  ( -1.000000000000000000, 0.000000000000000000, 102.0000000000000142 ) ) ;
#30 = CARTESIAN_POINT ( 'NONE',  ( 2.000000000000000000, 2.449293598294706414E-16, 2.000000000000000000 ) ) ;
#31 = EDGE_CURVE ( 'NONE', #96, #179, #13, .T. ) ;
#32 = DIRECTION ( 'NONE',  ( -1.000000000000000000, 0.000000000000000000, 0.000000000000000000 ) ) ;
#33 = DATE_AND_TIME ( #168, #228 ) ;
#34 = COORDINATED_UNIVERSAL_TIME_OFFSET ( 1, 0, .AHEAD. ) ;
#35 = CALENDAR_DATE ( 2022, 30, 6 ) ;
#36 = EDGE_LOOP ( 'NONE', ( #140, #156, #210, #94 ) ) ;
#37 = ORIENTED_EDGE ( 'NONE', *, *, #161, .T. ) ;
#38 = DIRECTION ( 'NONE',  ( 1.000000000000000000, 0.000000000000000000, 0.000000000000000000 ) ) ;
#39 = EDGE_LOOP ( 'NONE', ( #136, #18, #21, #197 ) ) ;
#40 = EDGE_LOOP ( 'NONE', ( #80, #160 ) ) ;
#41 = CC_DESIGN_PERSON_AND_ORGANIZATION_ASSIGNMENT ( #187, #66, ( #53 ) ) ;
#42 = DIRECTION ( 'NONE',  ( 0.000000000000000000, 0.000000000000000000, 1.000000000000000000 ) ) ;
#43 = DIRECTION ( 'NONE',  ( -0.000000000000000000, -0.000000000000000000, -1.000000000000000000 ) ) ;
#44 = PLANE ( 'NONE',  #227 ) ;
#45 = CARTESIAN_POINT ( 'NONE',  ( 0.000000000000000000, 0.000000000000000000, 0.000000000000000000 ) ) ;
#46 = APPROVAL_PERSON_ORGANIZATION ( #206, #113, #11 ) ;
#47 = PERSON_AND_ORGANIZATION ( #82, #170 ) ;
#48 = CYLINDRICAL_SURFACE ( 'NONE', #27, 1.000000000000000000 ) ;
#49 = LOCAL_TIME ( 22, 25, 11.00000000000000000, #135 ) ;
#50 = PERSON_AND_ORGANIZATION ( #82, #170 ) ;
#51 = CC_DESIGN_DATE_AND_TIME_ASSIGNMENT ( #15, #174, ( #238 ) ) ;
#52 = ORIENTED_EDGE ( 'NONE', *, *, #171, .T. ) ;
#53 = SECURITY_CLASSIFICATION ( '', '', #251 ) ;
#54 = VERTEX_POINT ( 'NONE', #58 ) ;
#55 = PRODUCT ( '8500', '8500', '', ( #72 ) ) ;
#56 = CARTESIAN_POINT ( 'NONE',  ( 0.000000000000000000, 0.000000000000000000, 0.000000000000000000 ) ) ;
#57 = CC_DESIGN_APPROVAL ( #113, ( #53 ) ) ;
#58 = CARTESIAN_POINT ( 'NONE',  ( -2.000000000000000000, 0.000000000000000000, 2.000000000000000000 ) ) ;
#59 = FACE_OUTER_BOUND ( 'NONE', #176, .T. ) ;
#60 = DIRECTION ( 'NONE',  ( 1.000000000000000000, 0.000000000000000000, -0.000000000000000000 ) ) ;
#61 = FACE_OUTER_BOUND ( 'NONE', #40, .T. ) ;
#62 = AXIS2_PLACEMENT_3D ( 'NONE', #118, #232, #213 ) ;
#63 = FACE_OUTER_BOUND ( 'NONE', #225, .T. ) ;
#64 = CARTESIAN_POINT ( 'NONE',  ( 2.000000000000000000, 2.449293598294706414E-16, 2.000000000000000000 ) ) ;
#65 = CC_DESIGN_SECURITY_CLASSIFICATION ( #53, ( #172 ) ) ;
#66 = PERSON_AND_ORGANIZATION_ROLE ( 'classification_officer' ) ;
#67 = EDGE_CURVE ( 'NONE', #134, #54, #151, .T. ) ;
#68 = ADVANCED_FACE ( 'NONE', ( #193 ), #23, .T. ) ;
#69 =( GEOMETRIC_REPRESENTATION_CONTEXT ( 3 ) GLOBAL_UNCERTAINTY_ASSIGNED_CONTEXT ( ( #79 ) ) GLOBAL_UNIT_ASSIGNED_CONTEXT ( ( #167, #153, #91 ) ) REPRESENTATION_CONTEXT ( 'NONE', 'WORKASPACE' ) );
#70 = APPROVAL_DATE_TIME ( #33, #113 ) ;
#71 = AXIS2_PLACEMENT_3D ( 'NONE', #6, #127, #28 ) ;
#72 = MECHANICAL_CONTEXT ( 'NONE', #247, 'mechanical' ) ;
#73 = PERSON_AND_ORGANIZATION ( #82, #170 ) ;
#74 = EDGE_LOOP ( 'NONE', ( #2, #139, #52, #189 ) ) ;
#75 = PERSON_AND_ORGANIZATION ( #82, #170 ) ;
#76 = DIRECTION ( 'NONE',  ( 1.000000000000000000, 0.000000000000000000, 0.000000000000000000 ) ) ;
#77 = DIRECTION ( 'NONE',  ( 1.000000000000000000, 0.000000000000000000, 0.000000000000000000 ) ) ;
#78 = ADVANCED_FACE ( 'NONE', ( #195 ), #99, .T. ) ;
#79 = UNCERTAINTY_MEASURE_WITH_UNIT (LENGTH_MEASURE( 1.000000000000000082E-05 ), #167, 'distance_accuracy_value', 'NONE');
#80 = ORIENTED_EDGE ( 'NONE', *, *, #16, .T. ) ;
#81 = DIRECTION ( 'NONE',  ( 0.000000000000000000, 0.000000000000000000, 1.000000000000000000 ) ) ;
#82 = PERSON ( 'NEURÈENÝ', 'NEURÈENÝ', 'NEURÈENÝ', ('NEURÈENÝ'), ('NEURÈENÝ'), ('NEURÈENÝ') ) ;
#83 = CARTESIAN_POINT ( 'NONE',  ( 0.000000000000000000, 0.000000000000000000, 102.0000000000000142 ) ) ;
#84 = FACE_OUTER_BOUND ( 'NONE', #154, .T. ) ;
#85 = DIRECTION ( 'NONE',  ( -1.000000000000000000, 0.000000000000000000, 0.000000000000000000 ) ) ;
#86 = CLOSED_SHELL ( 'NONE', ( #243, #68, #78, #231, #165, #196, #205 ) ) ;
#87 = CARTESIAN_POINT ( 'NONE',  ( 0.000000000000000000, 0.000000000000000000, 102.0000000000000142 ) ) ;
#88 = COORDINATED_UNIVERSAL_TIME_OFFSET ( 1, 0, .AHEAD. ) ;
#89 = CC_DESIGN_PERSON_AND_ORGANIZATION_ASSIGNMENT ( #150, #132, ( #55 ) ) ;
#90 = AXIS2_PLACEMENT_3D ( 'NONE', #87, #242, #236 ) ;
#91 =( NAMED_UNIT ( * ) SI_UNIT ( $, .STERADIAN. ) SOLID_ANGLE_UNIT ( ) );
#92 = PRODUCT_DEFINITION_SHAPE ( 'NONE', 'NONE',  #238 ) ;
#93 = PERSON_AND_ORGANIZATION ( #82, #170 ) ;
#94 = ORIENTED_EDGE ( 'NONE', *, *, #149, .F. ) ;
#95 = DATE_AND_TIME ( #19, #12 ) ;
#96 = VERTEX_POINT ( 'NONE', #109 ) ;
#97 = ORIENTED_EDGE ( 'NONE', *, *, #171, .F. ) ;
#98 = CC_DESIGN_PERSON_AND_ORGANIZATION_ASSIGNMENT ( #93, #177, ( #238 ) ) ;
#99 = CYLINDRICAL_SURFACE ( 'NONE', #240, 2.000000000000000000 ) ;
#100 = EDGE_LOOP ( 'NONE', ( #119, #115 ) ) ;
#101 = AXIS2_PLACEMENT_3D ( 'NONE', #83, #42, #162 ) ;
#102 = DIRECTION ( 'NONE',  ( 0.000000000000000000, 0.000000000000000000, 1.000000000000000000 ) ) ;
#103 = CARTESIAN_POINT ( 'NONE',  ( -1.000000000000000000, 0.000000000000000000, 2.000000000000000000 ) ) ;
#104 = CARTESIAN_POINT ( 'NONE',  ( 0.000000000000000000, 0.000000000000000000, 2.000000000000000000 ) ) ;
#105 = DIRECTION ( 'NONE',  ( 0.000000000000000000, 0.000000000000000000, 1.000000000000000000 ) ) ;
#106 = AXIS2_PLACEMENT_3D ( 'NONE', #199, #81, #60 ) ;
#107 = EDGE_CURVE ( 'NONE', #1, #191, #241, .T. ) ;
#108 = SHAPE_DEFINITION_REPRESENTATION ( #92, #255 ) ;
#109 = CARTESIAN_POINT ( 'NONE',  ( 2.000000000000000000, 2.449293598294706414E-16, 0.000000000000000000 ) ) ;
#110 = MANIFOLD_SOLID_BREP ( 'Pøidat vysunutím3', #86 ) ;
#111 = APPLICATION_PROTOCOL_DEFINITION ( 'international standard', 'config_control_design', 1994, #247 ) ;
#112 = DIRECTION ( 'NONE',  ( 1.000000000000000000, 0.000000000000000000, 0.000000000000000000 ) ) ;
#113 = APPROVAL ( #126, 'NEURÈENÝ' ) ;
#114 = ORIENTED_EDGE ( 'NONE', *, *, #219, .F. ) ;
#115 = ORIENTED_EDGE ( 'NONE', *, *, #161, .F. ) ;
#116 = DIRECTION ( 'NONE',  ( 0.000000000000000000, 0.000000000000000000, 1.000000000000000000 ) ) ;
#117 = AXIS2_PLACEMENT_3D ( 'NONE', #178, #229, #76 ) ;
#118 = CARTESIAN_POINT ( 'NONE',  ( 0.000000000000000000, 0.000000000000000000, 2.000000000000000000 ) ) ;
#119 = ORIENTED_EDGE ( 'NONE', *, *, #20, .F. ) ;
#120 = DIRECTION ( 'NONE',  ( -0.000000000000000000, -0.000000000000000000, -1.000000000000000000 ) ) ;
#121 = AXIS2_PLACEMENT_3D ( 'NONE', #157, #230, #77 ) ;
#122 = CARTESIAN_POINT ( 'NONE',  ( -2.000000000000000000, 0.000000000000000000, 0.000000000000000000 ) ) ;
#123 = LINE ( 'NONE', #204, #22 ) ;
#124 = CARTESIAN_POINT ( 'NONE',  ( 0.000000000000000000, 0.000000000000000000, 102.0000000000000142 ) ) ;
#125 = CC_DESIGN_PERSON_AND_ORGANIZATION_ASSIGNMENT ( #73, #133, ( #172 ) ) ;
#126 = APPROVAL_STATUS ( 'not_yet_approved' ) ;
#127 = DIRECTION ( 'NONE',  ( 0.000000000000000000, 0.000000000000000000, 1.000000000000000000 ) ) ;
#128 = CARTESIAN_POINT ( 'NONE',  ( 0.000000000000000000, 0.000000000000000000, 0.000000000000000000 ) ) ;
#129 = EDGE_CURVE ( 'NONE', #134, #96, #244, .T. ) ;
#130 = VECTOR ( 'NONE', #120, 1000.000000000000000 ) ;
#131 = PERSON_AND_ORGANIZATION_ROLE ( 'creator' ) ;
#132 = PERSON_AND_ORGANIZATION_ROLE ( 'design_owner' ) ;
#133 = PERSON_AND_ORGANIZATION_ROLE ( 'design_supplier' ) ;
#134 = VERTEX_POINT ( 'NONE', #64 ) ;
#135 = COORDINATED_UNIVERSAL_TIME_OFFSET ( 1, 0, .AHEAD. ) ;
#136 = ORIENTED_EDGE ( 'NONE', *, *, #129, .F. ) ;
#137 = VERTEX_POINT ( 'NONE', #103 ) ;
#138 = LOCAL_TIME ( 22, 25, 11.00000000000000000, #207 ) ;
#139 = ORIENTED_EDGE ( 'NONE', *, *, #226, .F. ) ;
#140 = ORIENTED_EDGE ( 'NONE', *, *, #67, .F. ) ;
#141 = CARTESIAN_POINT ( 'NONE',  ( 0.000000000000000000, 0.000000000000000000, 102.0000000000000142 ) ) ;
#142 = LINE ( 'NONE', #218, #146 ) ;
#143 = CIRCLE ( 'NONE', #121, 1.000000000000000000 ) ;
#144 = PLANE ( 'NONE',  #101 ) ;
#145 = DIRECTION ( 'NONE',  ( -0.000000000000000000, -0.000000000000000000, -1.000000000000000000 ) ) ;
#146 = VECTOR ( 'NONE', #216, 1000.000000000000000 ) ;
#147 = DIRECTION ( 'NONE',  ( 0.000000000000000000, 0.000000000000000000, 1.000000000000000000 ) ) ;
#148 = AXIS2_PLACEMENT_3D ( 'NONE', #158, #116, #3 ) ;
#149 = EDGE_CURVE ( 'NONE', #54, #179, #123, .T. ) ;
#150 = PERSON_AND_ORGANIZATION ( #82, #170 ) ;
#151 = CIRCLE ( 'NONE', #148, 2.000000000000000000 ) ;
#152 = DATE_AND_TIME ( #175, #49 ) ;
#153 =( NAMED_UNIT ( * ) PLANE_ANGLE_UNIT ( ) SI_UNIT ( $, .RADIAN. ) );
#154 = EDGE_LOOP ( 'NONE', ( #24, #180 ) ) ;
#155 = COORDINATED_UNIVERSAL_TIME_OFFSET ( 1, 0, .AHEAD. ) ;
#156 = ORIENTED_EDGE ( 'NONE', *, *, #129, .T. ) ;
#157 = CARTESIAN_POINT ( 'NONE',  ( 0.000000000000000000, 0.000000000000000000, 2.000000000000000000 ) ) ;
#158 = CARTESIAN_POINT ( 'NONE',  ( 0.000000000000000000, 0.000000000000000000, 2.000000000000000000 ) ) ;
#159 = LOCAL_TIME ( 22, 25, 11.00000000000000000, #34 ) ;
#160 = ORIENTED_EDGE ( 'NONE', *, *, #67, .T. ) ;
#161 = EDGE_CURVE ( 'NONE', #4, #137, #250, .T. ) ;
#162 = DIRECTION ( 'NONE',  ( 1.000000000000000000, 0.000000000000000000, -0.000000000000000000 ) ) ;
#163 = CARTESIAN_POINT ( 'NONE',  ( 0.000000000000000000, 0.000000000000000000, 2.000000000000000000 ) ) ;
#164 = DIRECTION ( 'NONE',  ( 1.000000000000000000, 0.000000000000000000, 0.000000000000000000 ) ) ;
#165 = ADVANCED_FACE ( 'NONE', ( #63 ), #237, .F. ) ;
#166 = DIRECTION ( 'NONE',  ( 1.000000000000000000, 0.000000000000000000, -0.000000000000000000 ) ) ;
#167 =( LENGTH_UNIT ( ) NAMED_UNIT ( * ) SI_UNIT ( .MILLI., .METRE. ) );
#168 = CALENDAR_DATE ( 2022, 30, 6 ) ;
#169 = AXIS2_PLACEMENT_3D ( 'NONE', #45, #105, #164 ) ;
#170 = ORGANIZATION ( 'NEURÈENÝ', 'NEURÈENÝ', '' ) ;
#171 = EDGE_CURVE ( 'NONE', #191, #137, #184, .T. ) ;
#172 = PRODUCT_DEFINITION_FORMATION_WITH_SPECIFIED_SOURCE ( 'LIBOVOLNÝ', '', #55, .NOT_KNOWN. ) ;
#173 = APPROVAL ( #246, 'NEURÈENÝ' ) ;
#174 = DATE_TIME_ROLE ( 'creation_date' ) ;
#175 = CALENDAR_DATE ( 2022, 30, 6 ) ;
#176 = EDGE_LOOP ( 'NONE', ( #25, #214, #37, #97 ) ) ;
#177 = PERSON_AND_ORGANIZATION_ROLE ( 'creator' ) ;
#178 = CARTESIAN_POINT ( 'NONE',  ( 0.000000000000000000, 0.000000000000000000, 2.000000000000000000 ) ) ;
#179 = VERTEX_POINT ( 'NONE', #122 ) ;
#180 = ORIENTED_EDGE ( 'NONE', *, *, #107, .T. ) ;
#181 = EDGE_CURVE ( 'NONE', #1, #4, #142, .T. ) ;
#182 = CARTESIAN_POINT ( 'NONE',  ( 1.000000000000000000, 1.224646799147353207E-16, 2.000000000000000000 ) ) ;
#183 = DIRECTION ( 'NONE',  ( -0.000000000000000000, -0.000000000000000000, -1.000000000000000000 ) ) ;
#184 = LINE ( 'NONE', #217, #192 ) ;
#185 = DIRECTION ( 'NONE',  ( 0.000000000000000000, 0.000000000000000000, 1.000000000000000000 ) ) ;
#186 = FACE_OUTER_BOUND ( 'NONE', #74, .T. ) ;
#187 = PERSON_AND_ORGANIZATION ( #82, #170 ) ;
#188 = APPROVAL_PERSON_ORGANIZATION ( #47, #221, #17 ) ;
#189 = ORIENTED_EDGE ( 'NONE', *, *, #20, .T. ) ;
#190 = CALENDAR_DATE ( 2022, 30, 6 ) ;
#191 = VERTEX_POINT ( 'NONE', #29 ) ;
#192 = VECTOR ( 'NONE', #9, 1000.000000000000000 ) ;
#193 = FACE_OUTER_BOUND ( 'NONE', #36, .T. ) ;
#194 = AXIS2_PLACEMENT_3D ( 'NONE', #104, #102, #215 ) ;
#195 = FACE_OUTER_BOUND ( 'NONE', #39, .T. ) ;
#196 = ADVANCED_FACE ( 'NONE', ( #186 ), #8, .T. ) ;
#197 = ORIENTED_EDGE ( 'NONE', *, *, #219, .T. ) ;
#198 = CIRCLE ( 'NONE', #90, 1.000000000000000000 ) ;
#199 = CARTESIAN_POINT ( 'NONE',  ( 0.000000000000000000, 0.000000000000000000, 0.000000000000000000 ) ) ;
#200 = DIRECTION ( 'NONE',  ( -1.000000000000000000, 0.000000000000000000, 0.000000000000000000 ) ) ;
#201 = CARTESIAN_POINT ( 'NONE',  ( 0.000000000000000000, 0.000000000000000000, 2.000000000000000000 ) ) ;
#202 = DIRECTION ( 'NONE',  ( -0.000000000000000000, -0.000000000000000000, -1.000000000000000000 ) ) ;
#203 = APPROVAL_DATE_TIME ( #95, #221 ) ;
#204 = CARTESIAN_POINT ( 'NONE',  ( -2.000000000000000000, 0.000000000000000000, 2.000000000000000000 ) ) ;
#205 = ADVANCED_FACE ( 'NONE', ( #84 ), #144, .T. ) ;
#206 = PERSON_AND_ORGANIZATION ( #82, #170 ) ;
#207 = COORDINATED_UNIVERSAL_TIME_OFFSET ( 1, 0, .AHEAD. ) ;
#208 = APPROVAL_DATE_TIME ( #220, #173 ) ;
#209 = APPROVAL_ROLE ( '' ) ;
#210 = ORIENTED_EDGE ( 'NONE', *, *, #31, .T. ) ;
#211 = APPLICATION_CONTEXT ( 'configuration controlled 3d designs of mechanical parts and assemblies' ) ;
#212 = DIRECTION ( 'NONE',  ( 0.000000000000000000, 0.000000000000000000, 1.000000000000000000 ) ) ;
#213 = DIRECTION ( 'NONE',  ( -1.000000000000000000, 0.000000000000000000, 0.000000000000000000 ) ) ;
#214 = ORIENTED_EDGE ( 'NONE', *, *, #181, .T. ) ;
#215 = DIRECTION ( 'NONE',  ( 1.000000000000000000, 0.000000000000000000, 0.000000000000000000 ) ) ;
#216 = DIRECTION ( 'NONE',  ( -0.000000000000000000, -0.000000000000000000, -1.000000000000000000 ) ) ;
#217 = CARTESIAN_POINT ( 'NONE',  ( -1.000000000000000000, 0.000000000000000000, 102.0000000000000142 ) ) ;
#218 = CARTESIAN_POINT ( 'NONE',  ( 1.000000000000000000, 1.224646799147353207E-16, 102.0000000000000142 ) ) ;
#219 = EDGE_CURVE ( 'NONE', #179, #96, #26, .T. ) ;
#220 = DATE_AND_TIME ( #35, #138 ) ;
#221 = APPROVAL ( #254, 'NEURÈENÝ' ) ;
#222 = CC_DESIGN_APPROVAL ( #221, ( #172 ) ) ;
#223 = CIRCLE ( 'NONE', #117, 2.000000000000000000 ) ;
#224 = APPLICATION_PROTOCOL_DEFINITION ( 'international standard', 'config_control_design', 1994, #211 ) ;
#225 = EDGE_LOOP ( 'NONE', ( #114, #234 ) ) ;
#226 = EDGE_CURVE ( 'NONE', #191, #1, #198, .T. ) ;
#227 = AXIS2_PLACEMENT_3D ( 'NONE', #201, #185, #166 ) ;
#228 = LOCAL_TIME ( 22, 25, 11.00000000000000000, #88 ) ;
#229 = DIRECTION ( 'NONE',  ( 0.000000000000000000, 0.000000000000000000, 1.000000000000000000 ) ) ;
#230 = DIRECTION ( 'NONE',  ( 0.000000000000000000, 0.000000000000000000, 1.000000000000000000 ) ) ;
#231 = ADVANCED_FACE ( 'NONE', ( #239, #61 ), #44, .T. ) ;
#232 = DIRECTION ( 'NONE',  ( -0.000000000000000000, -0.000000000000000000, -1.000000000000000000 ) ) ;
#233 = CC_DESIGN_APPROVAL ( #173, ( #238 ) ) ;
#234 = ORIENTED_EDGE ( 'NONE', *, *, #31, .F. ) ;
#235 = AXIS2_PLACEMENT_3D ( 'NONE', #56, #212, #38 ) ;
#236 = DIRECTION ( 'NONE',  ( 1.000000000000000000, 0.000000000000000000, 0.000000000000000000 ) ) ;
#237 = PLANE ( 'NONE',  #106 ) ;
#238 = PRODUCT_DEFINITION ( 'NEZNÁMÝ', '', #172, #7 ) ;
#239 = FACE_BOUND ( 'NONE', #100, .T. ) ;
#240 = AXIS2_PLACEMENT_3D ( 'NONE', #163, #43, #85 ) ;
#241 = CIRCLE ( 'NONE', #71, 1.000000000000000000 ) ;
#242 = DIRECTION ( 'NONE',  ( 0.000000000000000000, 0.000000000000000000, 1.000000000000000000 ) ) ;
#243 = ADVANCED_FACE ( 'NONE', ( #59 ), #48, .T. ) ;
#244 = LINE ( 'NONE', #30, #130 ) ;
#245 = AXIS2_PLACEMENT_3D ( 'NONE', #141, #183, #200 ) ;
#246 = APPROVAL_STATUS ( 'not_yet_approved' ) ;
#247 = APPLICATION_CONTEXT ( 'configuration controlled 3d designs of mechanical parts and assemblies' ) ;
#248 = AXIS2_PLACEMENT_3D ( 'NONE', #128, #147, #112 ) ;
#249 = DATE_TIME_ROLE ( 'classification_date' ) ;
#250 = CIRCLE ( 'NONE', #194, 1.000000000000000000 ) ;
#251 = SECURITY_CLASSIFICATION_LEVEL ( 'unclassified' ) ;
#252 = CC_DESIGN_DATE_AND_TIME_ASSIGNMENT ( #152, #249, ( #53 ) ) ;
#253 = CARTESIAN_POINT ( 'NONE',  ( 1.000000000000000000, 1.224646799147353207E-16, 102.0000000000000142 ) ) ;
#254 = APPROVAL_STATUS ( 'not_yet_approved' ) ;
#255 = ADVANCED_BREP_SHAPE_REPRESENTATION ( '8500', ( #110, #248 ), #69 ) ;
ENDSEC;
END-ISO-10303-21;
