ISO-10303-21;
HEADER;
FILE_DESCRIPTION (( 'STEP AP203' ),
    '1' );
FILE_NAME ('2bbb.STEP',
    '2022-07-07T12:43:28',
    ( '' ),
    ( '' ),
    'SwSTEP 2.0',
    'SolidWorks 2019',
    '' );
FILE_SCHEMA (( 'CONFIG_CONTROL_DESIGN' ));
ENDSEC;

DATA;
#1 = CARTESIAN_POINT ( 'NONE',  ( -2.949999999999999734, 3.612708057484692097E-16, 3.200000000000008171 ) ) ;
#2 = DIRECTION ( 'NONE',  ( 1.000000000000000000, 0.000000000000000000, -0.000000000000000000 ) ) ;
#3 = APPROVAL ( #32, 'NEURÈENÝ' ) ;
#4 = DIRECTION ( 'NONE',  ( 1.000000000000000000, 0.000000000000000000, 0.000000000000000000 ) ) ;
#5 = PERSON_AND_ORGANIZATION_ROLE ( 'design_supplier' ) ;
#6 = CALENDAR_DATE ( 2022, 7, 7 ) ;
#7 = PERSON_AND_ORGANIZATION_ROLE ( 'creator' ) ;
#8 = ORIENTED_EDGE ( 'NONE', *, *, #123, .T. ) ;
#9 = COORDINATED_UNIVERSAL_TIME_OFFSET ( 1, 0, .AHEAD. ) ;
#10 = VERTEX_POINT ( 'NONE', #106 ) ;
#11 = APPROVAL_PERSON_ORGANIZATION ( #144, #219, #28 ) ;
#12 = ORIENTED_EDGE ( 'NONE', *, *, #55, .T. ) ;
#13 = PERSON ( 'NEURÈENÝ', 'NEURÈENÝ', 'NEURÈENÝ', ('NEURÈENÝ'), ('NEURÈENÝ'), ('NEURÈENÝ') ) ;
#14 = DIRECTION ( 'NONE',  ( 1.000000000000000000, 0.000000000000000000, 0.000000000000000000 ) ) ;
#15 = DIRECTION ( 'NONE',  ( 1.000000000000000000, 0.000000000000000000, 0.000000000000000000 ) ) ;
#16 = AXIS2_PLACEMENT_3D ( 'NONE', #50, #91, #280 ) ;
#17 = ORIENTED_EDGE ( 'NONE', *, *, #151, .F. ) ;
#18 = APPLICATION_CONTEXT ( 'configuration controlled 3d designs of mechanical parts and assemblies' ) ;
#19 = EDGE_LOOP ( 'NONE', ( #128, #244, #175, #269 ) ) ;
#20 = DIRECTION ( 'NONE',  ( -0.000000000000000000, -0.000000000000000000, -1.000000000000000000 ) ) ;
#21 = CIRCLE ( 'NONE', #250, 2.949999999999999734 ) ;
#22 = CC_DESIGN_DATE_AND_TIME_ASSIGNMENT ( #270, #56, ( #261 ) ) ;
#23 = CARTESIAN_POINT ( 'NONE',  ( 0.000000000000000000, 0.000000000000000000, 3.000000000000000000 ) ) ;
#24 = LINE ( 'NONE', #164, #166 ) ;
#25 = DIRECTION ( 'NONE',  ( -1.000000000000000000, 0.000000000000000000, 0.000000000000000000 ) ) ;
#26 = CC_DESIGN_SECURITY_CLASSIFICATION ( #261, ( #254 ) ) ;
#27 = DIRECTION ( 'NONE',  ( -0.000000000000000000, -0.000000000000000000, -1.000000000000000000 ) ) ;
#28 = APPROVAL_ROLE ( '' ) ;
#29 = ORIENTED_EDGE ( 'NONE', *, *, #86, .F. ) ;
#30 = CC_DESIGN_APPROVAL ( #219, ( #261 ) ) ;
#31 = APPROVAL ( #119, 'NEURÈENÝ' ) ;
#32 = APPROVAL_STATUS ( 'not_yet_approved' ) ;
#33 = CALENDAR_DATE ( 2022, 7, 7 ) ;
#34 = ORIENTED_EDGE ( 'NONE', *, *, #240, .T. ) ;
#35 = CC_DESIGN_PERSON_AND_ORGANIZATION_ASSIGNMENT ( #77, #74, ( #261 ) ) ;
#36 = APPROVAL_DATE_TIME ( #243, #219 ) ;
#37 = VECTOR ( 'NONE', #307, 1000.000000000000000 ) ;
#38 = VERTEX_POINT ( 'NONE', #276 ) ;
#39 = DIRECTION ( 'NONE',  ( -0.000000000000000000, -0.000000000000000000, -1.000000000000000000 ) ) ;
#40 = CARTESIAN_POINT ( 'NONE',  ( 0.000000000000000000, 0.000000000000000000, 0.000000000000000000 ) ) ;
#41 = AXIS2_PLACEMENT_3D ( 'NONE', #104, #194, #195 ) ;
#42 = ADVANCED_FACE ( 'NONE', ( #66 ), #103, .T. ) ;
#43 = ORIENTED_EDGE ( 'NONE', *, *, #206, .F. ) ;
#44 = DIRECTION ( 'NONE',  ( 0.000000000000000000, -1.000000000000000000, 0.000000000000000000 ) ) ;
#45 = EDGE_LOOP ( 'NONE', ( #193, #235, #12, #274 ) ) ;
#46 = PRODUCT_DEFINITION ( 'NEZNÁMÝ', '', #254, #255 ) ;
#47 = LINE ( 'NONE', #159, #37 ) ;
#48 = FACE_OUTER_BOUND ( 'NONE', #291, .T. ) ;
#49 = CARTESIAN_POINT ( 'NONE',  ( 0.000000000000000000, 0.000000000000000000, 3.000000000000000000 ) ) ;
#50 = CARTESIAN_POINT ( 'NONE',  ( 0.000000000000000000, 0.000000000000000000, 0.000000000000000000 ) ) ;
#51 = DIRECTION ( 'NONE',  ( 1.000000000000000000, 0.000000000000000000, 0.000000000000000000 ) ) ;
#52 = PERSON_AND_ORGANIZATION ( #13, #245 ) ;
#53 = CC_DESIGN_PERSON_AND_ORGANIZATION_ASSIGNMENT ( #294, #5, ( #254 ) ) ;
#54 = MECHANICAL_CONTEXT ( 'NONE', #149, 'mechanical' ) ;
#55 = EDGE_CURVE ( 'NONE', #168, #246, #221, .T. ) ;
#56 = DATE_TIME_ROLE ( 'classification_date' ) ;
#57 = VERTEX_POINT ( 'NONE', #224 ) ;
#58 = APPROVAL_PERSON_ORGANIZATION ( #97, #31, #101 ) ;
#59 = LOCAL_TIME ( 14, 43, 28.00000000000000000, #171 ) ;
#60 = DIRECTION ( 'NONE',  ( 1.000000000000000000, 0.000000000000000000, 0.000000000000000000 ) ) ;
#61 = CARTESIAN_POINT ( 'NONE',  ( 0.000000000000000000, 0.000000000000000000, 0.000000000000000000 ) ) ;
#62 = EDGE_CURVE ( 'NONE', #57, #174, #304, .T. ) ;
#63 = ORIENTED_EDGE ( 'NONE', *, *, #233, .F. ) ;
#64 = ORIENTED_EDGE ( 'NONE', *, *, #169, .F. ) ;
#65 = EDGE_CURVE ( 'NONE', #38, #168, #87, .T. ) ;
#66 = FACE_OUTER_BOUND ( 'NONE', #19, .T. ) ;
#67 = CARTESIAN_POINT ( 'NONE',  ( -5.000000000000000000, 0.000000000000000000, 0.000000000000000000 ) ) ;
#68 = DIRECTION ( 'NONE',  ( 1.000000000000000000, 0.000000000000000000, 0.000000000000000000 ) ) ;
#69 = DIRECTION ( 'NONE',  ( -0.000000000000000000, -0.000000000000000000, -1.000000000000000000 ) ) ;
#70 = CARTESIAN_POINT ( 'NONE',  ( 0.000000000000000000, 0.000000000000000000, 253.0000000000000000 ) ) ;
#71 = PRODUCT_DEFINITION_SHAPE ( 'NONE', 'NONE',  #46 ) ;
#72 = CARTESIAN_POINT ( 'NONE',  ( 5.000000000000000000, 6.123233995736766282E-16, 3.000000000000000000 ) ) ;
#73 = CC_DESIGN_DATE_AND_TIME_ASSIGNMENT ( #98, #234, ( #46 ) ) ;
#74 = PERSON_AND_ORGANIZATION_ROLE ( 'classification_officer' ) ;
#75 = ORIENTED_EDGE ( 'NONE', *, *, #233, .T. ) ;
#76 =( LENGTH_UNIT ( ) NAMED_UNIT ( * ) SI_UNIT ( .MILLI., .METRE. ) );
#77 = PERSON_AND_ORGANIZATION ( #13, #245 ) ;
#78 = CALENDAR_DATE ( 2022, 7, 7 ) ;
#79 = ADVANCED_BREP_SHAPE_REPRESENTATION ( '2bbb', ( #132, #282 ), #89 ) ;
#80 = DIRECTION ( 'NONE',  ( -1.000000000000000000, 0.000000000000000000, 0.000000000000000000 ) ) ;
#81 = CIRCLE ( 'NONE', #16, 5.000000000000000000 ) ;
#82 = ORIENTED_EDGE ( 'NONE', *, *, #86, .T. ) ;
#83 = CC_DESIGN_PERSON_AND_ORGANIZATION_ASSIGNMENT ( #52, #148, ( #117 ) ) ;
#84 = FACE_OUTER_BOUND ( 'NONE', #125, .T. ) ;
#85 = ORIENTED_EDGE ( 'NONE', *, *, #213, .T. ) ;
#86 = EDGE_CURVE ( 'NONE', #174, #57, #260, .T. ) ;
#87 = CIRCLE ( 'NONE', #266, 2.750000000000000000 ) ;
#88 = DIRECTION ( 'NONE',  ( 0.000000000000000000, 0.000000000000000000, -1.000000000000000000 ) ) ;
#89 =( GEOMETRIC_REPRESENTATION_CONTEXT ( 3 ) GLOBAL_UNCERTAINTY_ASSIGNED_CONTEXT ( ( #137 ) ) GLOBAL_UNIT_ASSIGNED_CONTEXT ( ( #76, #208, #237 ) ) REPRESENTATION_CONTEXT ( 'NONE', 'WORKASPACE' ) );
#90 = CARTESIAN_POINT ( 'NONE',  ( 5.000000000000000000, 6.123233995736766282E-16, 3.000000000000000000 ) ) ;
#91 = DIRECTION ( 'NONE',  ( 0.000000000000000000, 0.000000000000000000, 1.000000000000000000 ) ) ;
#92 = DIRECTION ( 'NONE',  ( 0.000000000000000000, 0.000000000000000000, 1.000000000000000000 ) ) ;
#93 = DIRECTION ( 'NONE',  ( 1.000000000000000000, 0.000000000000000000, 0.000000000000000000 ) ) ;
#94 = DIRECTION ( 'NONE',  ( 0.000000000000000000, 0.000000000000000000, 1.000000000000000000 ) ) ;
#95 = ADVANCED_FACE ( 'NONE', ( #158 ), #287, .F. ) ;
#96 = LOCAL_TIME ( 14, 43, 28.00000000000000000, #9 ) ;
#97 = PERSON_AND_ORGANIZATION ( #13, #245 ) ;
#98 = DATE_AND_TIME ( #290, #59 ) ;
#99 = EDGE_LOOP ( 'NONE', ( #211, #43 ) ) ;
#100 = CALENDAR_DATE ( 2022, 7, 7 ) ;
#101 = APPROVAL_ROLE ( '' ) ;
#102 = ORIENTED_EDGE ( 'NONE', *, *, #62, .T. ) ;
#103 = CYLINDRICAL_SURFACE ( 'NONE', #236, 2.750000000000000000 ) ;
#104 = CARTESIAN_POINT ( 'NONE',  ( 0.000000000000000000, 0.000000000000000000, 253.0000000000000000 ) ) ;
#105 = CIRCLE ( 'NONE', #170, 2.949999999999999734 ) ;
#106 = CARTESIAN_POINT ( 'NONE',  ( -5.000000000000000000, 0.000000000000000000, 3.000000000000000000 ) ) ;
#107 = VERTEX_POINT ( 'NONE', #271 ) ;
#108 = ORIENTED_EDGE ( 'NONE', *, *, #147, .F. ) ;
#109 = CARTESIAN_POINT ( 'NONE',  ( 2.750000000000000000, 3.367778697655221012E-16, 3.200000000000008171 ) ) ;
#110 = AXIS2_PLACEMENT_3D ( 'NONE', #180, #94, #4 ) ;
#111 = CARTESIAN_POINT ( 'NONE',  ( 0.000000000000000000, 0.000000000000000000, 3.000000000000000000 ) ) ;
#112 = ADVANCED_FACE ( 'NONE', ( #299 ), #301, .F. ) ;
#113 = CYLINDRICAL_SURFACE ( 'NONE', #142, 5.000000000000000000 ) ;
#114 = AXIS2_PLACEMENT_3D ( 'NONE', #198, #131, #223 ) ;
#115 = FACE_OUTER_BOUND ( 'NONE', #172, .T. ) ;
#116 = CARTESIAN_POINT ( 'NONE',  ( 0.000000000000000000, 0.000000000000000000, 3.200000000000008171 ) ) ;
#117 = PRODUCT ( '2bbb', '2bbb', '', ( #54 ) ) ;
#118 = DIRECTION ( 'NONE',  ( 0.000000000000000000, 0.000000000000000000, 1.000000000000000000 ) ) ;
#119 = APPROVAL_STATUS ( 'not_yet_approved' ) ;
#120 = ORIENTED_EDGE ( 'NONE', *, *, #240, .F. ) ;
#121 = AXIS2_PLACEMENT_3D ( 'NONE', #61, #197, #155 ) ;
#122 = APPLICATION_PROTOCOL_DEFINITION ( 'international standard', 'config_control_design', 1994, #149 ) ;
#123 = EDGE_CURVE ( 'NONE', #212, #189, #293, .T. ) ;
#124 = APPROVAL_ROLE ( '' ) ;
#125 = EDGE_LOOP ( 'NONE', ( #17, #29, #157, #199 ) ) ;
#126 = CIRCLE ( 'NONE', #110, 5.000000000000000000 ) ;
#127 = SHAPE_DEFINITION_REPRESENTATION ( #71, #79 ) ;
#128 = ORIENTED_EDGE ( 'NONE', *, *, #62, .F. ) ;
#129 = EDGE_LOOP ( 'NONE', ( #64, #120, #218, #8 ) ) ;
#130 = ADVANCED_FACE ( 'NONE', ( #84 ), #248, .T. ) ;
#131 = DIRECTION ( 'NONE',  ( -0.000000000000000000, -0.000000000000000000, -1.000000000000000000 ) ) ;
#132 = MANIFOLD_SOLID_BREP ( 'Zaoblit1', #277 ) ;
#133 = CARTESIAN_POINT ( 'NONE',  ( 0.000000000000000000, 0.000000000000000000, 3.200000000000008171 ) ) ;
#134 = AXIS2_PLACEMENT_3D ( 'NONE', #259, #140, #68 ) ;
#135 = PLANE ( 'NONE',  #186 ) ;
#136 = EDGE_CURVE ( 'NONE', #38, #107, #249, .T. ) ;
#137 = UNCERTAINTY_MEASURE_WITH_UNIT (LENGTH_MEASURE( 1.000000000000000082E-05 ), #76, 'distance_accuracy_value', 'NONE');
#138 = DIRECTION ( 'NONE',  ( 1.000000000000000000, 0.000000000000000000, 0.000000000000000000 ) ) ;
#139 = DIRECTION ( 'NONE',  ( 0.000000000000000000, 0.000000000000000000, 1.000000000000000000 ) ) ;
#140 = DIRECTION ( 'NONE',  ( 0.000000000000000000, 0.000000000000000000, 1.000000000000000000 ) ) ;
#141 = ADVANCED_FACE ( 'NONE', ( #115 ), #196, .F. ) ;
#142 = AXIS2_PLACEMENT_3D ( 'NONE', #165, #262, #203 ) ;
#143 = CARTESIAN_POINT ( 'NONE',  ( -2.750000000000000000, 0.000000000000000000, 253.0000000000000000 ) ) ;
#144 = PERSON_AND_ORGANIZATION ( #13, #245 ) ;
#145 = APPROVAL_DATE_TIME ( #210, #31 ) ;
#146 = ORIENTED_EDGE ( 'NONE', *, *, #136, .T. ) ;
#147 = EDGE_CURVE ( 'NONE', #298, #10, #126, .T. ) ;
#148 = PERSON_AND_ORGANIZATION_ROLE ( 'design_owner' ) ;
#149 = APPLICATION_CONTEXT ( 'configuration controlled 3d designs of mechanical parts and assemblies' ) ;
#150 = PERSON_AND_ORGANIZATION ( #13, #245 ) ;
#151 = EDGE_CURVE ( 'NONE', #57, #168, #47, .T. ) ;
#152 = AXIS2_PLACEMENT_3D ( 'NONE', #247, #252, #173 ) ;
#153 = LOCAL_TIME ( 14, 43, 28.00000000000000000, #239 ) ;
#154 = ORIENTED_EDGE ( 'NONE', *, *, #206, .T. ) ;
#155 = DIRECTION ( 'NONE',  ( 1.000000000000000000, 0.000000000000000000, -0.000000000000000000 ) ) ;
#156 = CARTESIAN_POINT ( 'NONE',  ( 2.949999999999999734, 0.000000000000000000, 3.200000000000008171 ) ) ;
#157 = ORIENTED_EDGE ( 'NONE', *, *, #263, .T. ) ;
#158 = FACE_OUTER_BOUND ( 'NONE', #45, .T. ) ;
#159 = CARTESIAN_POINT ( 'NONE',  ( 2.750000000000000000, 3.367778697655221012E-16, 253.0000000000000000 ) ) ;
#160 = AXIS2_PLACEMENT_3D ( 'NONE', #40, #220, #15 ) ;
#161 = CC_DESIGN_APPROVAL ( #3, ( #254 ) ) ;
#162 = FACE_BOUND ( 'NONE', #217, .T. ) ;
#163 = LINE ( 'NONE', #90, #238 ) ;
#164 = CARTESIAN_POINT ( 'NONE',  ( -5.000000000000000000, 0.000000000000000000, 3.000000000000000000 ) ) ;
#165 = CARTESIAN_POINT ( 'NONE',  ( 0.000000000000000000, 0.000000000000000000, 3.000000000000000000 ) ) ;
#166 = VECTOR ( 'NONE', #183, 1000.000000000000000 ) ;
#167 = CARTESIAN_POINT ( 'NONE',  ( 0.000000000000000000, 0.000000000000000000, 0.000000000000000000 ) ) ;
#168 = VERTEX_POINT ( 'NONE', #109 ) ;
#169 = EDGE_CURVE ( 'NONE', #298, #189, #163, .T. ) ;
#170 = AXIS2_PLACEMENT_3D ( 'NONE', #23, #69, #93 ) ;
#171 = COORDINATED_UNIVERSAL_TIME_OFFSET ( 1, 0, .AHEAD. ) ;
#172 = EDGE_LOOP ( 'NONE', ( #303, #146, #63, #297 ) ) ;
#173 = DIRECTION ( 'NONE',  ( 1.000000000000000000, 0.000000000000000000, 0.000000000000000000 ) ) ;
#174 = VERTEX_POINT ( 'NONE', #143 ) ;
#175 = ORIENTED_EDGE ( 'NONE', *, *, #292, .T. ) ;
#176 = ORIENTED_EDGE ( 'NONE', *, *, #147, .T. ) ;
#177 = DIRECTION ( 'NONE',  ( 0.000000000000000000, 0.000000000000000000, 1.000000000000000000 ) ) ;
#178 = CARTESIAN_POINT ( 'NONE',  ( 0.000000000000000000, 0.000000000000000000, 3.000000000000000000 ) ) ;
#179 = DIRECTION ( 'NONE',  ( -1.000000000000000000, 1.224646799147353207E-16, 0.000000000000000000 ) ) ;
#180 = CARTESIAN_POINT ( 'NONE',  ( 0.000000000000000000, 0.000000000000000000, 3.000000000000000000 ) ) ;
#181 = ADVANCED_FACE ( 'NONE', ( #162, #48 ), #135, .T. ) ;
#182 = DIRECTION ( 'NONE',  ( 1.000000000000000000, 0.000000000000000000, -0.000000000000000000 ) ) ;
#183 = DIRECTION ( 'NONE',  ( -0.000000000000000000, -0.000000000000000000, -1.000000000000000000 ) ) ;
#184 = APPLICATION_PROTOCOL_DEFINITION ( 'international standard', 'config_control_design', 1994, #18 ) ;
#185 = LOCAL_TIME ( 14, 43, 28.00000000000000000, #296 ) ;
#186 = AXIS2_PLACEMENT_3D ( 'NONE', #178, #139, #182 ) ;
#187 = ORIENTED_EDGE ( 'NONE', *, *, #169, .T. ) ;
#188 = ADVANCED_FACE ( 'NONE', ( #279 ), #284, .T. ) ;
#189 = VERTEX_POINT ( 'NONE', #283 ) ;
#190 = DATE_AND_TIME ( #100, #96 ) ;
#191 = AXIS2_PLACEMENT_3D ( 'NONE', #1, #230, #179 ) ;
#192 = PERSON_AND_ORGANIZATION ( #13, #245 ) ;
#193 = ORIENTED_EDGE ( 'NONE', *, *, #136, .F. ) ;
#194 = DIRECTION ( 'NONE',  ( 0.000000000000000000, 0.000000000000000000, 1.000000000000000000 ) ) ;
#195 = DIRECTION ( 'NONE',  ( 1.000000000000000000, 0.000000000000000000, 0.000000000000000000 ) ) ;
#196 = TOROIDAL_SURFACE ( 'NONE', #268, 2.949999999999999734, 0.2000000000000000111 ) ;
#197 = DIRECTION ( 'NONE',  ( 0.000000000000000000, 0.000000000000000000, 1.000000000000000000 ) ) ;
#198 = CARTESIAN_POINT ( 'NONE',  ( 0.000000000000000000, 0.000000000000000000, 253.0000000000000000 ) ) ;
#199 = ORIENTED_EDGE ( 'NONE', *, *, #65, .T. ) ;
#200 = ADVANCED_FACE ( 'NONE', ( #258 ), #256, .T. ) ;
#201 = VECTOR ( 'NONE', #27, 1000.000000000000000 ) ;
#202 = CARTESIAN_POINT ( 'NONE',  ( 0.000000000000000000, 0.000000000000000000, 3.200000000000008171 ) ) ;
#203 = DIRECTION ( 'NONE',  ( -1.000000000000000000, 0.000000000000000000, 0.000000000000000000 ) ) ;
#204 = DIRECTION ( 'NONE',  ( -0.000000000000000000, -0.000000000000000000, -1.000000000000000000 ) ) ;
#205 = DIRECTION ( 'NONE',  ( 0.000000000000000000, 0.000000000000000000, 1.000000000000000000 ) ) ;
#206 = EDGE_CURVE ( 'NONE', #189, #212, #81, .T. ) ;
#207 = DIRECTION ( 'NONE',  ( 0.000000000000000000, 0.000000000000000000, 1.000000000000000000 ) ) ;
#208 =( NAMED_UNIT ( * ) PLANE_ANGLE_UNIT ( ) SI_UNIT ( $, .RADIAN. ) );
#209 = COORDINATED_UNIVERSAL_TIME_OFFSET ( 1, 0, .AHEAD. ) ;
#210 = DATE_AND_TIME ( #33, #153 ) ;
#211 = ORIENTED_EDGE ( 'NONE', *, *, #123, .F. ) ;
#212 = VERTEX_POINT ( 'NONE', #67 ) ;
#213 = EDGE_CURVE ( 'NONE', #107, #246, #105, .T. ) ;
#214 = APPROVAL_DATE_TIME ( #190, #3 ) ;
#215 = AXIS2_PLACEMENT_3D ( 'NONE', #156, #44, #88 ) ;
#216 = AXIS2_PLACEMENT_3D ( 'NONE', #116, #207, #51 ) ;
#217 = EDGE_LOOP ( 'NONE', ( #75, #85 ) ) ;
#218 = ORIENTED_EDGE ( 'NONE', *, *, #225, .T. ) ;
#219 = APPROVAL ( #232, 'NEURÈENÝ' ) ;
#220 = DIRECTION ( 'NONE',  ( 0.000000000000000000, 0.000000000000000000, 1.000000000000000000 ) ) ;
#221 = CIRCLE ( 'NONE', #215, 0.2000000000000000944 ) ;
#222 = AXIS2_PLACEMENT_3D ( 'NONE', #70, #205, #2 ) ;
#223 = DIRECTION ( 'NONE',  ( -1.000000000000000000, 0.000000000000000000, 0.000000000000000000 ) ) ;
#224 = CARTESIAN_POINT ( 'NONE',  ( 2.750000000000000000, 3.367778697655221012E-16, 253.0000000000000000 ) ) ;
#225 = EDGE_CURVE ( 'NONE', #10, #212, #24, .T. ) ;
#226 = AXIS2_PLACEMENT_3D ( 'NONE', #273, #177, #14 ) ;
#227 = CIRCLE ( 'NONE', #216, 2.750000000000000000 ) ;
#228 = CARTESIAN_POINT ( 'NONE',  ( -2.750000000000000000, 0.000000000000000000, 253.0000000000000000 ) ) ;
#229 = LINE ( 'NONE', #228, #201 ) ;
#230 = DIRECTION ( 'NONE',  ( 1.224646799147353207E-16, 1.000000000000000000, -0.000000000000000000 ) ) ;
#231 = FACE_OUTER_BOUND ( 'NONE', #302, .T. ) ;
#232 = APPROVAL_STATUS ( 'not_yet_approved' ) ;
#233 = EDGE_CURVE ( 'NONE', #246, #107, #21, .T. ) ;
#234 = DATE_TIME_ROLE ( 'creation_date' ) ;
#235 = ORIENTED_EDGE ( 'NONE', *, *, #292, .F. ) ;
#236 = AXIS2_PLACEMENT_3D ( 'NONE', #251, #39, #80 ) ;
#237 =( NAMED_UNIT ( * ) SI_UNIT ( $, .STERADIAN. ) SOLID_ANGLE_UNIT ( ) );
#238 = VECTOR ( 'NONE', #204, 1000.000000000000000 ) ;
#239 = COORDINATED_UNIVERSAL_TIME_OFFSET ( 1, 0, .AHEAD. ) ;
#240 = EDGE_CURVE ( 'NONE', #10, #298, #288, .T. ) ;
#241 = PERSON_AND_ORGANIZATION_ROLE ( 'creator' ) ;
#242 = EDGE_LOOP ( 'NONE', ( #82, #102 ) ) ;
#243 = DATE_AND_TIME ( #6, #272 ) ;
#244 = ORIENTED_EDGE ( 'NONE', *, *, #151, .T. ) ;
#245 = ORGANIZATION ( 'NEURÈENÝ', 'NEURÈENÝ', '' ) ;
#246 = VERTEX_POINT ( 'NONE', #286 ) ;
#247 = CARTESIAN_POINT ( 'NONE',  ( 0.000000000000000000, 0.000000000000000000, 3.200000000000008171 ) ) ;
#248 = CYLINDRICAL_SURFACE ( 'NONE', #114, 2.750000000000000000 ) ;
#249 = CIRCLE ( 'NONE', #191, 0.2000000000000000944 ) ;
#250 = AXIS2_PLACEMENT_3D ( 'NONE', #111, #253, #138 ) ;
#251 = CARTESIAN_POINT ( 'NONE',  ( 0.000000000000000000, 0.000000000000000000, 253.0000000000000000 ) ) ;
#252 = DIRECTION ( 'NONE',  ( 0.000000000000000000, 0.000000000000000000, 1.000000000000000000 ) ) ;
#253 = DIRECTION ( 'NONE',  ( -0.000000000000000000, -0.000000000000000000, -1.000000000000000000 ) ) ;
#254 = PRODUCT_DEFINITION_FORMATION_WITH_SPECIFIED_SOURCE ( 'LIBOVOLNÝ', '', #117, .NOT_KNOWN. ) ;
#255 = DESIGN_CONTEXT ( 'detailed design', #18, 'design' ) ;
#256 = PLANE ( 'NONE',  #222 ) ;
#257 = PRODUCT_RELATED_PRODUCT_CATEGORY ( 'detail', '', ( #117 ) ) ;
#258 = FACE_OUTER_BOUND ( 'NONE', #242, .T. ) ;
#259 = CARTESIAN_POINT ( 'NONE',  ( 0.000000000000000000, 0.000000000000000000, 3.000000000000000000 ) ) ;
#260 = CIRCLE ( 'NONE', #41, 2.750000000000000000 ) ;
#261 = SECURITY_CLASSIFICATION ( '', '', #264 ) ;
#262 = DIRECTION ( 'NONE',  ( -0.000000000000000000, -0.000000000000000000, -1.000000000000000000 ) ) ;
#263 = EDGE_CURVE ( 'NONE', #174, #38, #229, .T. ) ;
#264 = SECURITY_CLASSIFICATION_LEVEL ( 'unclassified' ) ;
#265 = ORIENTED_EDGE ( 'NONE', *, *, #225, .F. ) ;
#266 = AXIS2_PLACEMENT_3D ( 'NONE', #133, #278, #60 ) ;
#267 = DIRECTION ( 'NONE',  ( 1.000000000000000000, 0.000000000000000000, 0.000000000000000000 ) ) ;
#268 = AXIS2_PLACEMENT_3D ( 'NONE', #202, #92, #306 ) ;
#269 = ORIENTED_EDGE ( 'NONE', *, *, #263, .F. ) ;
#270 = DATE_AND_TIME ( #78, #185 ) ;
#271 = CARTESIAN_POINT ( 'NONE',  ( -2.949999999999999734, 3.612708057484692097E-16, 3.000000000000004441 ) ) ;
#272 = LOCAL_TIME ( 14, 43, 28.00000000000000000, #209 ) ;
#273 = CARTESIAN_POINT ( 'NONE',  ( 0.000000000000000000, 0.000000000000000000, 253.0000000000000000 ) ) ;
#274 = ORIENTED_EDGE ( 'NONE', *, *, #213, .F. ) ;
#275 = CC_DESIGN_PERSON_AND_ORGANIZATION_ASSIGNMENT ( #192, #241, ( #254 ) ) ;
#276 = CARTESIAN_POINT ( 'NONE',  ( -2.750000000000000000, 0.000000000000000000, 3.200000000000008171 ) ) ;
#277 = CLOSED_SHELL ( 'NONE', ( #141, #42, #285, #188, #181, #112, #130, #200, #95 ) ) ;
#278 = DIRECTION ( 'NONE',  ( 0.000000000000000000, 0.000000000000000000, 1.000000000000000000 ) ) ;
#279 = FACE_OUTER_BOUND ( 'NONE', #129, .T. ) ;
#280 = DIRECTION ( 'NONE',  ( 1.000000000000000000, 0.000000000000000000, 0.000000000000000000 ) ) ;
#281 = CC_DESIGN_PERSON_AND_ORGANIZATION_ASSIGNMENT ( #289, #7, ( #46 ) ) ;
#282 = AXIS2_PLACEMENT_3D ( 'NONE', #167, #118, #267 ) ;
#283 = CARTESIAN_POINT ( 'NONE',  ( 5.000000000000000000, 6.123233995736766282E-16, 0.000000000000000000 ) ) ;
#284 = CYLINDRICAL_SURFACE ( 'NONE', #305, 5.000000000000000000 ) ;
#285 = ADVANCED_FACE ( 'NONE', ( #231 ), #113, .T. ) ;
#286 = CARTESIAN_POINT ( 'NONE',  ( 2.949999999999999734, 0.000000000000000000, 3.000000000000004441 ) ) ;
#287 = TOROIDAL_SURFACE ( 'NONE', #152, 2.949999999999999734, 0.2000000000000000111 ) ;
#288 = CIRCLE ( 'NONE', #134, 5.000000000000000000 ) ;
#289 = PERSON_AND_ORGANIZATION ( #13, #245 ) ;
#290 = CALENDAR_DATE ( 2022, 7, 7 ) ;
#291 = EDGE_LOOP ( 'NONE', ( #34, #176 ) ) ;
#292 = EDGE_CURVE ( 'NONE', #168, #38, #227, .T. ) ;
#293 = CIRCLE ( 'NONE', #160, 5.000000000000000000 ) ;
#294 = PERSON_AND_ORGANIZATION ( #13, #245 ) ;
#295 = CC_DESIGN_APPROVAL ( #31, ( #46 ) ) ;
#296 = COORDINATED_UNIVERSAL_TIME_OFFSET ( 1, 0, .AHEAD. ) ;
#297 = ORIENTED_EDGE ( 'NONE', *, *, #55, .F. ) ;
#298 = VERTEX_POINT ( 'NONE', #72 ) ;
#299 = FACE_OUTER_BOUND ( 'NONE', #99, .T. ) ;
#300 = APPROVAL_PERSON_ORGANIZATION ( #150, #3, #124 ) ;
#301 = PLANE ( 'NONE',  #121 ) ;
#302 = EDGE_LOOP ( 'NONE', ( #108, #187, #154, #265 ) ) ;
#303 = ORIENTED_EDGE ( 'NONE', *, *, #65, .F. ) ;
#304 = CIRCLE ( 'NONE', #226, 2.750000000000000000 ) ;
#305 = AXIS2_PLACEMENT_3D ( 'NONE', #49, #20, #25 ) ;
#306 = DIRECTION ( 'NONE',  ( 1.000000000000000000, 0.000000000000000000, 0.000000000000000000 ) ) ;
#307 = DIRECTION ( 'NONE',  ( -0.000000000000000000, -0.000000000000000000, -1.000000000000000000 ) ) ;
ENDSEC;
END-ISO-10303-21;
