ISO-10303-21;
HEADER;
FILE_DESCRIPTION (( 'STEP AP203' ),
    '1' );
FILE_NAME ('9f7d.STEP',
    '2022-07-07T12:38:40',
    ( '' ),
    ( '' ),
    'SwSTEP 2.0',
    'SolidWorks 2019',
    '' );
FILE_SCHEMA (( 'CONFIG_CONTROL_DESIGN' ));
ENDSEC;

DATA;
#1 = DIRECTION ( 'NONE',  ( 0.000000000000000000, 0.000000000000000000, 1.000000000000000000 ) ) ;
#2 = CC_DESIGN_PERSON_AND_ORGANIZATION_ASSIGNMENT ( #223, #108, ( #241 ) ) ;
#3 = ORIENTED_EDGE ( 'NONE', *, *, #73, .F. ) ;
#4 = AXIS2_PLACEMENT_3D ( 'NONE', #305, #42, #90 ) ;
#5 = EDGE_LOOP ( 'NONE', ( #47, #229, #122, #288 ) ) ;
#6 = CARTESIAN_POINT ( 'NONE',  ( 0.000000000000000000, 0.000000000000000000, 5.000000000000000000 ) ) ;
#7 = DIRECTION ( 'NONE',  ( -0.000000000000000000, -0.000000000000000000, -1.000000000000000000 ) ) ;
#8 = AXIS2_PLACEMENT_3D ( 'NONE', #214, #1, #24 ) ;
#9 = CARTESIAN_POINT ( 'NONE',  ( 0.000000000000000000, 0.000000000000000000, 320.0000000000000000 ) ) ;
#10 = CIRCLE ( 'NONE', #91, 3.450000000000000178 ) ;
#11 = DIRECTION ( 'NONE',  ( -0.000000000000000000, -0.000000000000000000, -1.000000000000000000 ) ) ;
#12 = EDGE_CURVE ( 'NONE', #88, #285, #146, .T. ) ;
#13 = CARTESIAN_POINT ( 'NONE',  ( 0.000000000000000000, 0.000000000000000000, 0.000000000000000000 ) ) ;
#14 = AXIS2_PLACEMENT_3D ( 'NONE', #51, #236, #126 ) ;
#15 = PERSON_AND_ORGANIZATION_ROLE ( 'design_supplier' ) ;
#16 = CALENDAR_DATE ( 2022, 7, 7 ) ;
#17 = ORIENTED_EDGE ( 'NONE', *, *, #124, .T. ) ;
#18 = DIRECTION ( 'NONE',  ( 1.000000000000000000, 0.000000000000000000, 0.000000000000000000 ) ) ;
#19 = DIRECTION ( 'NONE',  ( -1.000000000000000000, 1.224646799147350742E-16, 0.000000000000000000 ) ) ;
#20 = ORIENTED_EDGE ( 'NONE', *, *, #297, .T. ) ;
#21 = LOCAL_TIME ( 14, 38, 40.00000000000000000, #204 ) ;
#22 = ADVANCED_FACE ( 'NONE', ( #152, #192 ), #185, .T. ) ;
#23 = ORIENTED_EDGE ( 'NONE', *, *, #56, .F. ) ;
#24 = DIRECTION ( 'NONE',  ( 1.000000000000000000, 0.000000000000000000, 0.000000000000000000 ) ) ;
#25 = ORIENTED_EDGE ( 'NONE', *, *, #161, .F. ) ;
#26 = CYLINDRICAL_SURFACE ( 'NONE', #45, 3.250000000000000444 ) ;
#27 = LINE ( 'NONE', #28, #303 ) ;
#28 = CARTESIAN_POINT ( 'NONE',  ( -3.250000000000000444, 0.000000000000000000, 320.0000000000000000 ) ) ;
#29 = MANIFOLD_SOLID_BREP ( 'Zaoblit1', #277 ) ;
#30 = EDGE_CURVE ( 'NONE', #283, #77, #107, .T. ) ;
#31 = AXIS2_PLACEMENT_3D ( 'NONE', #293, #55, #156 ) ;
#32 = DIRECTION ( 'NONE',  ( 0.000000000000000000, 0.000000000000000000, 1.000000000000000000 ) ) ;
#33 = AXIS2_PLACEMENT_3D ( 'NONE', #228, #250, #18 ) ;
#34 = CARTESIAN_POINT ( 'NONE',  ( -6.000000000000000888, 0.000000000000000000, 5.000000000000000000 ) ) ;
#35 =( NAMED_UNIT ( * ) PLANE_ANGLE_UNIT ( ) SI_UNIT ( $, .RADIAN. ) );
#36 = PERSON_AND_ORGANIZATION ( #246, #79 ) ;
#37 = AXIS2_PLACEMENT_3D ( 'NONE', #268, #200, #82 ) ;
#38 = COORDINATED_UNIVERSAL_TIME_OFFSET ( 1, 0, .AHEAD. ) ;
#39 = CARTESIAN_POINT ( 'NONE',  ( 0.000000000000000000, 0.000000000000000000, 5.199999999999982414 ) ) ;
#40 = APPROVAL_ROLE ( '' ) ;
#41 = DIRECTION ( 'NONE',  ( 1.224646799147353207E-16, 1.000000000000000000, -0.000000000000000000 ) ) ;
#42 = DIRECTION ( 'NONE',  ( 0.000000000000000000, 0.000000000000000000, 1.000000000000000000 ) ) ;
#43 = VERTEX_POINT ( 'NONE', #65 ) ;
#44 = APPLICATION_CONTEXT ( 'configuration controlled 3d designs of mechanical parts and assemblies' ) ;
#45 = AXIS2_PLACEMENT_3D ( 'NONE', #113, #255, #224 ) ;
#46 = EDGE_CURVE ( 'NONE', #77, #283, #112, .T. ) ;
#47 = ORIENTED_EDGE ( 'NONE', *, *, #124, .F. ) ;
#48 = CIRCLE ( 'NONE', #202, 3.250000000000000444 ) ;
#49 = ORIENTED_EDGE ( 'NONE', *, *, #117, .F. ) ;
#50 = ORIENTED_EDGE ( 'NONE', *, *, #203, .T. ) ;
#51 = CARTESIAN_POINT ( 'NONE',  ( 0.000000000000000000, 0.000000000000000000, 320.0000000000000000 ) ) ;
#52 = LINE ( 'NONE', #34, #260 ) ;
#53 = AXIS2_PLACEMENT_3D ( 'NONE', #98, #174, #103 ) ;
#54 = FACE_OUTER_BOUND ( 'NONE', #5, .T. ) ;
#55 = DIRECTION ( 'NONE',  ( -0.000000000000000000, -0.000000000000000000, -1.000000000000000000 ) ) ;
#56 = EDGE_CURVE ( 'NONE', #235, #88, #183, .T. ) ;
#57 = DIRECTION ( 'NONE',  ( 1.000000000000000000, 0.000000000000000000, 0.000000000000000000 ) ) ;
#58 = AXIS2_PLACEMENT_3D ( 'NONE', #238, #194, #294 ) ;
#59 = DIRECTION ( 'NONE',  ( -1.000000000000000000, 0.000000000000000000, 0.000000000000000000 ) ) ;
#60 = APPROVAL_ROLE ( '' ) ;
#61 = APPLICATION_CONTEXT ( 'configuration controlled 3d designs of mechanical parts and assemblies' ) ;
#62 = PERSON_AND_ORGANIZATION ( #246, #79 ) ;
#63 = CIRCLE ( 'NONE', #37, 3.250000000000000444 ) ;
#64 = DATE_AND_TIME ( #300, #21 ) ;
#65 = CARTESIAN_POINT ( 'NONE',  ( -3.250000000000000444, 0.000000000000000000, 320.0000000000000000 ) ) ;
#66 = ADVANCED_FACE ( 'NONE', ( #291 ), #26, .T. ) ;
#67 = DIRECTION ( 'NONE',  ( 1.000000000000000000, 0.000000000000000000, 0.000000000000000000 ) ) ;
#68 = ORIENTED_EDGE ( 'NONE', *, *, #274, .F. ) ;
#69 = CIRCLE ( 'NONE', #53, 3.250000000000000444 ) ;
#70 = CIRCLE ( 'NONE', #170, 6.000000000000000888 ) ;
#71 = ORIENTED_EDGE ( 'NONE', *, *, #111, .T. ) ;
#72 = EDGE_LOOP ( 'NONE', ( #71, #17 ) ) ;
#73 = EDGE_CURVE ( 'NONE', #235, #121, #87, .T. ) ;
#74 = CARTESIAN_POINT ( 'NONE',  ( -3.450000000000000178, 4.225031457058368824E-16, 5.199999999999982414 ) ) ;
#75 = VECTOR ( 'NONE', #133, 1000.000000000000000 ) ;
#76 = EDGE_LOOP ( 'NONE', ( #166, #251 ) ) ;
#77 = VERTEX_POINT ( 'NONE', #206 ) ;
#78 = CARTESIAN_POINT ( 'NONE',  ( 3.450000000000000178, 0.000000000000000000, 4.999999999999991118 ) ) ;
#79 = ORGANIZATION ( 'NEURÈENÝ', 'NEURÈENÝ', '' ) ;
#80 = CARTESIAN_POINT ( 'NONE',  ( -3.250000000000000444, 0.000000000000000000, 5.199999999999982414 ) ) ;
#81 = ADVANCED_FACE ( 'NONE', ( #169 ), #164, .F. ) ;
#82 = DIRECTION ( 'NONE',  ( 1.000000000000000000, 0.000000000000000000, 0.000000000000000000 ) ) ;
#83 = AXIS2_PLACEMENT_3D ( 'NONE', #213, #95, #172 ) ;
#84 = DATE_AND_TIME ( #16, #245 ) ;
#85 = APPROVAL_DATE_TIME ( #220, #279 ) ;
#86 = APPLICATION_PROTOCOL_DEFINITION ( 'international standard', 'config_control_design', 1994, #44 ) ;
#87 = CIRCLE ( 'NONE', #142, 0.2000000000000000944 ) ;
#88 = VERTEX_POINT ( 'NONE', #94 ) ;
#89 = DATE_AND_TIME ( #208, #195 ) ;
#90 = DIRECTION ( 'NONE',  ( 1.000000000000000000, 0.000000000000000000, -0.000000000000000000 ) ) ;
#91 = AXIS2_PLACEMENT_3D ( 'NONE', #270, #105, #57 ) ;
#92 = ORIENTED_EDGE ( 'NONE', *, *, #203, .F. ) ;
#93 = ORIENTED_EDGE ( 'NONE', *, *, #138, .F. ) ;
#94 = CARTESIAN_POINT ( 'NONE',  ( 3.250000000000000444, 3.980102097228898231E-16, 5.199999999999982414 ) ) ;
#95 = DIRECTION ( 'NONE',  ( 0.000000000000000000, 0.000000000000000000, 1.000000000000000000 ) ) ;
#96 = ADVANCED_FACE ( 'NONE', ( #190 ), #179, .F. ) ;
#97 = LOCAL_TIME ( 14, 38, 40.00000000000000000, #38 ) ;
#98 = CARTESIAN_POINT ( 'NONE',  ( 0.000000000000000000, 0.000000000000000000, 320.0000000000000000 ) ) ;
#99 = CARTESIAN_POINT ( 'NONE',  ( 3.250000000000000444, 3.980102097228898231E-16, 320.0000000000000000 ) ) ;
#100 = DIRECTION ( 'NONE',  ( -0.000000000000000000, -0.000000000000000000, -1.000000000000000000 ) ) ;
#101 = PRODUCT_DEFINITION_SHAPE ( 'NONE', 'NONE',  #252 ) ;
#102 = AXIS2_PLACEMENT_3D ( 'NONE', #6, #193, #178 ) ;
#103 = DIRECTION ( 'NONE',  ( 1.000000000000000000, 0.000000000000000000, 0.000000000000000000 ) ) ;
#104 = ADVANCED_FACE ( 'NONE', ( #123 ), #264, .T. ) ;
#105 = DIRECTION ( 'NONE',  ( -0.000000000000000000, -0.000000000000000000, -1.000000000000000000 ) ) ;
#106 = DIRECTION ( 'NONE',  ( 0.000000000000000000, 0.000000000000000000, 1.000000000000000000 ) ) ;
#107 = CIRCLE ( 'NONE', #271, 6.000000000000000888 ) ;
#108 = PERSON_AND_ORGANIZATION_ROLE ( 'design_owner' ) ;
#109 =( NAMED_UNIT ( * ) SI_UNIT ( $, .STERADIAN. ) SOLID_ANGLE_UNIT ( ) );
#110 = PERSON_AND_ORGANIZATION_ROLE ( 'creator' ) ;
#111 = EDGE_CURVE ( 'NONE', #43, #148, #69, .T. ) ;
#112 = CIRCLE ( 'NONE', #8, 6.000000000000000888 ) ;
#113 = CARTESIAN_POINT ( 'NONE',  ( 0.000000000000000000, 0.000000000000000000, 320.0000000000000000 ) ) ;
#114 = CALENDAR_DATE ( 2022, 7, 7 ) ;
#115 = CC_DESIGN_APPROVAL ( #221, ( #252 ) ) ;
#116 = EDGE_LOOP ( 'NONE', ( #231, #20, #50, #49 ) ) ;
#117 = EDGE_CURVE ( 'NONE', #283, #167, #52, .T. ) ;
#118 = ORIENTED_EDGE ( 'NONE', *, *, #111, .F. ) ;
#119 = VECTOR ( 'NONE', #100, 1000.000000000000000 ) ;
#120 = EDGE_LOOP ( 'NONE', ( #145, #230 ) ) ;
#121 = VERTEX_POINT ( 'NONE', #216 ) ;
#122 = ORIENTED_EDGE ( 'NONE', *, *, #263, .T. ) ;
#123 = FACE_OUTER_BOUND ( 'NONE', #72, .T. ) ;
#124 = EDGE_CURVE ( 'NONE', #148, #43, #48, .T. ) ;
#125 = ORIENTED_EDGE ( 'NONE', *, *, #290, .F. ) ;
#126 = DIRECTION ( 'NONE',  ( 1.000000000000000000, 0.000000000000000000, -0.000000000000000000 ) ) ;
#127 = AXIS2_PLACEMENT_3D ( 'NONE', #198, #11, #59 ) ;
#128 = CYLINDRICAL_SURFACE ( 'NONE', #102, 6.000000000000000888 ) ;
#129 = CARTESIAN_POINT ( 'NONE',  ( 6.000000000000000888, 7.347880794884120722E-16, 0.000000000000000000 ) ) ;
#130 = EDGE_CURVE ( 'NONE', #43, #235, #27, .T. ) ;
#131 = CYLINDRICAL_SURFACE ( 'NONE', #127, 3.250000000000000444 ) ;
#132 =( GEOMETRIC_REPRESENTATION_CONTEXT ( 3 ) GLOBAL_UNCERTAINTY_ASSIGNED_CONTEXT ( ( #177 ) ) GLOBAL_UNIT_ASSIGNED_CONTEXT ( ( #272, #35, #109 ) ) REPRESENTATION_CONTEXT ( 'NONE', 'WORKASPACE' ) );
#133 = DIRECTION ( 'NONE',  ( -0.000000000000000000, -0.000000000000000000, -1.000000000000000000 ) ) ;
#134 = DIRECTION ( 'NONE',  ( 1.000000000000000000, 0.000000000000000000, 0.000000000000000000 ) ) ;
#135 = APPROVAL ( #160, 'NEURÈENÝ' ) ;
#136 = APPROVAL_ROLE ( '' ) ;
#137 = DATE_AND_TIME ( #299, #267 ) ;
#138 = EDGE_CURVE ( 'NONE', #148, #88, #196, .T. ) ;
#139 = APPROVAL_DATE_TIME ( #84, #221 ) ;
#140 = ORIENTED_EDGE ( 'NONE', *, *, #12, .F. ) ;
#141 = APPROVAL_STATUS ( 'not_yet_approved' ) ;
#142 = AXIS2_PLACEMENT_3D ( 'NONE', #74, #41, #19 ) ;
#143 = DIRECTION ( 'NONE',  ( 0.000000000000000000, -1.000000000000000000, 0.000000000000000000 ) ) ;
#144 = ORIENTED_EDGE ( 'NONE', *, *, #30, .F. ) ;
#145 = ORIENTED_EDGE ( 'NONE', *, *, #30, .T. ) ;
#146 = CIRCLE ( 'NONE', #199, 0.1999999999999996503 ) ;
#147 = CC_DESIGN_APPROVAL ( #279, ( #227 ) ) ;
#148 = VERTEX_POINT ( 'NONE', #298 ) ;
#149 = CC_DESIGN_DATE_AND_TIME_ASSIGNMENT ( #64, #162, ( #273 ) ) ;
#150 = DIRECTION ( 'NONE',  ( 0.000000000000000000, 0.000000000000000000, -1.000000000000000000 ) ) ;
#151 = ORIENTED_EDGE ( 'NONE', *, *, #73, .T. ) ;
#152 = FACE_BOUND ( 'NONE', #76, .T. ) ;
#153 = DIRECTION ( 'NONE',  ( 0.000000000000000000, 0.000000000000000000, 1.000000000000000000 ) ) ;
#154 = DIRECTION ( 'NONE',  ( 0.000000000000000000, 0.000000000000000000, 1.000000000000000000 ) ) ;
#155 = ADVANCED_BREP_SHAPE_REPRESENTATION ( '9f7d', ( #29, #33 ), #132 ) ;
#156 = DIRECTION ( 'NONE',  ( 1.000000000000000000, 0.000000000000000000, 0.000000000000000000 ) ) ;
#157 = LINE ( 'NONE', #244, #75 ) ;
#158 = FACE_OUTER_BOUND ( 'NONE', #116, .T. ) ;
#159 = APPROVAL_STATUS ( 'not_yet_approved' ) ;
#160 = APPROVAL_STATUS ( 'not_yet_approved' ) ;
#161 = EDGE_CURVE ( 'NONE', #167, #189, #70, .T. ) ;
#162 = DATE_TIME_ROLE ( 'classification_date' ) ;
#163 = DIRECTION ( 'NONE',  ( 0.000000000000000000, 0.000000000000000000, 1.000000000000000000 ) ) ;
#164 = PLANE ( 'NONE',  #4 ) ;
#165 = EDGE_LOOP ( 'NONE', ( #3, #284, #259, #125 ) ) ;
#166 = ORIENTED_EDGE ( 'NONE', *, *, #274, .T. ) ;
#167 = VERTEX_POINT ( 'NONE', #180 ) ;
#168 = ADVANCED_FACE ( 'NONE', ( #54 ), #131, .T. ) ;
#169 = FACE_OUTER_BOUND ( 'NONE', #233, .T. ) ;
#170 = AXIS2_PLACEMENT_3D ( 'NONE', #13, #154, #266 ) ;
#171 = TOROIDAL_SURFACE ( 'NONE', #232, 3.450000000000000178, 0.2000000000000000111 ) ;
#172 = DIRECTION ( 'NONE',  ( 1.000000000000000000, 0.000000000000000000, 0.000000000000000000 ) ) ;
#173 = DIRECTION ( 'NONE',  ( 1.000000000000000000, 0.000000000000000000, 0.000000000000000000 ) ) ;
#174 = DIRECTION ( 'NONE',  ( 0.000000000000000000, 0.000000000000000000, 1.000000000000000000 ) ) ;
#175 = ADVANCED_FACE ( 'NONE', ( #296 ), #171, .F. ) ;
#176 = CARTESIAN_POINT ( 'NONE',  ( 0.000000000000000000, 0.000000000000000000, 0.000000000000000000 ) ) ;
#177 = UNCERTAINTY_MEASURE_WITH_UNIT (LENGTH_MEASURE( 1.000000000000000082E-05 ), #272, 'distance_accuracy_value', 'NONE');
#178 = DIRECTION ( 'NONE',  ( -1.000000000000000000, 0.000000000000000000, 0.000000000000000000 ) ) ;
#179 = TOROIDAL_SURFACE ( 'NONE', #83, 3.450000000000000178, 0.2000000000000000111 ) ;
#180 = CARTESIAN_POINT ( 'NONE',  ( -6.000000000000000888, 0.000000000000000000, 0.000000000000000000 ) ) ;
#181 = COORDINATED_UNIVERSAL_TIME_OFFSET ( 1, 0, .AHEAD. ) ;
#182 = PERSON_AND_ORGANIZATION ( #246, #79 ) ;
#183 = CIRCLE ( 'NONE', #306, 3.250000000000000444 ) ;
#184 = PERSON_AND_ORGANIZATION ( #246, #79 ) ;
#185 = PLANE ( 'NONE',  #243 ) ;
#186 = APPROVAL_DATE_TIME ( #89, #135 ) ;
#187 = ORIENTED_EDGE ( 'NONE', *, *, #297, .F. ) ;
#188 = CC_DESIGN_PERSON_AND_ORGANIZATION_ASSIGNMENT ( #222, #15, ( #227 ) ) ;
#189 = VERTEX_POINT ( 'NONE', #129 ) ;
#190 = FACE_OUTER_BOUND ( 'NONE', #165, .T. ) ;
#191 = AXIS2_PLACEMENT_3D ( 'NONE', #176, #153, #134 ) ;
#192 = FACE_OUTER_BOUND ( 'NONE', #120, .T. ) ;
#193 = DIRECTION ( 'NONE',  ( -0.000000000000000000, -0.000000000000000000, -1.000000000000000000 ) ) ;
#194 = DIRECTION ( 'NONE',  ( -0.000000000000000000, -0.000000000000000000, -1.000000000000000000 ) ) ;
#195 = LOCAL_TIME ( 14, 38, 40.00000000000000000, #225 ) ;
#196 = LINE ( 'NONE', #99, #119 ) ;
#197 = CC_DESIGN_PERSON_AND_ORGANIZATION_ASSIGNMENT ( #280, #301, ( #273 ) ) ;
#198 = CARTESIAN_POINT ( 'NONE',  ( 0.000000000000000000, 0.000000000000000000, 320.0000000000000000 ) ) ;
#199 = AXIS2_PLACEMENT_3D ( 'NONE', #212, #143, #150 ) ;
#200 = DIRECTION ( 'NONE',  ( 0.000000000000000000, 0.000000000000000000, 1.000000000000000000 ) ) ;
#201 = DESIGN_CONTEXT ( 'detailed design', #61, 'design' ) ;
#202 = AXIS2_PLACEMENT_3D ( 'NONE', #9, #32, #215 ) ;
#203 = EDGE_CURVE ( 'NONE', #189, #167, #207, .T. ) ;
#204 = COORDINATED_UNIVERSAL_TIME_OFFSET ( 1, 0, .AHEAD. ) ;
#205 = APPLICATION_PROTOCOL_DEFINITION ( 'international standard', 'config_control_design', 1994, #61 ) ;
#206 = CARTESIAN_POINT ( 'NONE',  ( 6.000000000000000888, 7.347880794884120722E-16, 5.000000000000000000 ) ) ;
#207 = CIRCLE ( 'NONE', #191, 6.000000000000000888 ) ;
#208 = CALENDAR_DATE ( 2022, 7, 7 ) ;
#209 = CC_DESIGN_DATE_AND_TIME_ASSIGNMENT ( #137, #253, ( #252 ) ) ;
#210 = DIRECTION ( 'NONE',  ( 1.000000000000000000, 0.000000000000000000, -0.000000000000000000 ) ) ;
#211 = ADVANCED_FACE ( 'NONE', ( #158 ), #219, .T. ) ;
#212 = CARTESIAN_POINT ( 'NONE',  ( 3.450000000000000178, 0.000000000000000000, 5.199999999999982414 ) ) ;
#213 = CARTESIAN_POINT ( 'NONE',  ( 0.000000000000000000, 0.000000000000000000, 5.199999999999982414 ) ) ;
#214 = CARTESIAN_POINT ( 'NONE',  ( 0.000000000000000000, 0.000000000000000000, 5.000000000000000000 ) ) ;
#215 = DIRECTION ( 'NONE',  ( 1.000000000000000000, 0.000000000000000000, 0.000000000000000000 ) ) ;
#216 = CARTESIAN_POINT ( 'NONE',  ( -3.450000000000000178, 4.225031457058368824E-16, 4.999999999999991118 ) ) ;
#217 = CC_DESIGN_PERSON_AND_ORGANIZATION_ASSIGNMENT ( #62, #110, ( #227 ) ) ;
#218 = DIRECTION ( 'NONE',  ( -0.000000000000000000, -0.000000000000000000, -1.000000000000000000 ) ) ;
#219 = CYLINDRICAL_SURFACE ( 'NONE', #58, 6.000000000000000888 ) ;
#220 = DATE_AND_TIME ( #114, #97 ) ;
#221 = APPROVAL ( #159, 'NEURÈENÝ' ) ;
#222 = PERSON_AND_ORGANIZATION ( #246, #79 ) ;
#223 = PERSON_AND_ORGANIZATION ( #246, #79 ) ;
#224 = DIRECTION ( 'NONE',  ( -1.000000000000000000, 0.000000000000000000, 0.000000000000000000 ) ) ;
#225 = COORDINATED_UNIVERSAL_TIME_OFFSET ( 1, 0, .AHEAD. ) ;
#226 = DIRECTION ( 'NONE',  ( 0.000000000000000000, 0.000000000000000000, 1.000000000000000000 ) ) ;
#227 = PRODUCT_DEFINITION_FORMATION_WITH_SPECIFIED_SOURCE ( 'LIBOVOLNÝ', '', #241, .NOT_KNOWN. ) ;
#228 = CARTESIAN_POINT ( 'NONE',  ( 0.000000000000000000, 0.000000000000000000, 0.000000000000000000 ) ) ;
#229 = ORIENTED_EDGE ( 'NONE', *, *, #138, .T. ) ;
#230 = ORIENTED_EDGE ( 'NONE', *, *, #46, .T. ) ;
#231 = ORIENTED_EDGE ( 'NONE', *, *, #46, .F. ) ;
#232 = AXIS2_PLACEMENT_3D ( 'NONE', #240, #106, #173 ) ;
#233 = EDGE_LOOP ( 'NONE', ( #25, #92 ) ) ;
#234 = DIRECTION ( 'NONE',  ( 0.000000000000000000, 0.000000000000000000, 1.000000000000000000 ) ) ;
#235 = VERTEX_POINT ( 'NONE', #80 ) ;
#236 = DIRECTION ( 'NONE',  ( 0.000000000000000000, 0.000000000000000000, 1.000000000000000000 ) ) ;
#237 = CC_DESIGN_PERSON_AND_ORGANIZATION_ASSIGNMENT ( #36, #248, ( #252 ) ) ;
#238 = CARTESIAN_POINT ( 'NONE',  ( 0.000000000000000000, 0.000000000000000000, 5.000000000000000000 ) ) ;
#239 = CIRCLE ( 'NONE', #31, 3.450000000000000178 ) ;
#240 = CARTESIAN_POINT ( 'NONE',  ( 0.000000000000000000, 0.000000000000000000, 5.199999999999982414 ) ) ;
#241 = PRODUCT ( '9f7d', '9f7d', '', ( #276 ) ) ;
#242 = CARTESIAN_POINT ( 'NONE',  ( -6.000000000000000888, 0.000000000000000000, 5.000000000000000000 ) ) ;
#243 = AXIS2_PLACEMENT_3D ( 'NONE', #292, #234, #210 ) ;
#244 = CARTESIAN_POINT ( 'NONE',  ( 6.000000000000000888, 7.347880794884120722E-16, 5.000000000000000000 ) ) ;
#245 = LOCAL_TIME ( 14, 38, 40.00000000000000000, #275 ) ;
#246 = PERSON ( 'NEURÈENÝ', 'NEURÈENÝ', 'NEURÈENÝ', ('NEURÈENÝ'), ('NEURÈENÝ'), ('NEURÈENÝ') ) ;
#247 = PRODUCT_RELATED_PRODUCT_CATEGORY ( 'detail', '', ( #241 ) ) ;
#248 = PERSON_AND_ORGANIZATION_ROLE ( 'creator' ) ;
#249 = APPROVAL_PERSON_ORGANIZATION ( #304, #221, #136 ) ;
#250 = DIRECTION ( 'NONE',  ( 0.000000000000000000, 0.000000000000000000, 1.000000000000000000 ) ) ;
#251 = ORIENTED_EDGE ( 'NONE', *, *, #290, .T. ) ;
#252 = PRODUCT_DEFINITION ( 'NEZNÁMÝ', '', #227, #201 ) ;
#253 = DATE_TIME_ROLE ( 'creation_date' ) ;
#254 = EDGE_LOOP ( 'NONE', ( #23, #151, #68, #140 ) ) ;
#255 = DIRECTION ( 'NONE',  ( -0.000000000000000000, -0.000000000000000000, -1.000000000000000000 ) ) ;
#256 = EDGE_LOOP ( 'NONE', ( #93, #118, #289, #261 ) ) ;
#257 = APPROVAL_PERSON_ORGANIZATION ( #184, #279, #60 ) ;
#258 = ORIENTED_EDGE ( 'NONE', *, *, #117, .T. ) ;
#259 = ORIENTED_EDGE ( 'NONE', *, *, #12, .T. ) ;
#260 = VECTOR ( 'NONE', #218, 1000.000000000000000 ) ;
#261 = ORIENTED_EDGE ( 'NONE', *, *, #56, .T. ) ;
#262 = EDGE_LOOP ( 'NONE', ( #187, #144, #258, #287 ) ) ;
#263 = EDGE_CURVE ( 'NONE', #88, #235, #63, .T. ) ;
#264 = PLANE ( 'NONE',  #14 ) ;
#265 = FACE_OUTER_BOUND ( 'NONE', #262, .T. ) ;
#266 = DIRECTION ( 'NONE',  ( 1.000000000000000000, 0.000000000000000000, 0.000000000000000000 ) ) ;
#267 = LOCAL_TIME ( 14, 38, 40.00000000000000000, #181 ) ;
#268 = CARTESIAN_POINT ( 'NONE',  ( 0.000000000000000000, 0.000000000000000000, 5.199999999999982414 ) ) ;
#269 = ADVANCED_FACE ( 'NONE', ( #265 ), #128, .T. ) ;
#270 = CARTESIAN_POINT ( 'NONE',  ( 0.000000000000000000, 0.000000000000000000, 5.000000000000000000 ) ) ;
#271 = AXIS2_PLACEMENT_3D ( 'NONE', #281, #226, #302 ) ;
#272 =( LENGTH_UNIT ( ) NAMED_UNIT ( * ) SI_UNIT ( .MILLI., .METRE. ) );
#273 = SECURITY_CLASSIFICATION ( '', '', #278 ) ;
#274 = EDGE_CURVE ( 'NONE', #285, #121, #239, .T. ) ;
#275 = COORDINATED_UNIVERSAL_TIME_OFFSET ( 1, 0, .AHEAD. ) ;
#276 = MECHANICAL_CONTEXT ( 'NONE', #44, 'mechanical' ) ;
#277 = CLOSED_SHELL ( 'NONE', ( #175, #168, #211, #269, #22, #81, #66, #104, #96 ) ) ;
#278 = SECURITY_CLASSIFICATION_LEVEL ( 'unclassified' ) ;
#279 = APPROVAL ( #141, 'NEURÈENÝ' ) ;
#280 = PERSON_AND_ORGANIZATION ( #246, #79 ) ;
#281 = CARTESIAN_POINT ( 'NONE',  ( 0.000000000000000000, 0.000000000000000000, 5.000000000000000000 ) ) ;
#282 = SHAPE_DEFINITION_REPRESENTATION ( #101, #155 ) ;
#283 = VERTEX_POINT ( 'NONE', #242 ) ;
#284 = ORIENTED_EDGE ( 'NONE', *, *, #263, .F. ) ;
#285 = VERTEX_POINT ( 'NONE', #78 ) ;
#286 = APPROVAL_PERSON_ORGANIZATION ( #182, #135, #40 ) ;
#287 = ORIENTED_EDGE ( 'NONE', *, *, #161, .T. ) ;
#288 = ORIENTED_EDGE ( 'NONE', *, *, #130, .F. ) ;
#289 = ORIENTED_EDGE ( 'NONE', *, *, #130, .T. ) ;
#290 = EDGE_CURVE ( 'NONE', #121, #285, #10, .T. ) ;
#291 = FACE_OUTER_BOUND ( 'NONE', #256, .T. ) ;
#292 = CARTESIAN_POINT ( 'NONE',  ( 0.000000000000000000, 0.000000000000000000, 5.000000000000000000 ) ) ;
#293 = CARTESIAN_POINT ( 'NONE',  ( 0.000000000000000000, 0.000000000000000000, 5.000000000000000000 ) ) ;
#294 = DIRECTION ( 'NONE',  ( -1.000000000000000000, 0.000000000000000000, 0.000000000000000000 ) ) ;
#295 = CC_DESIGN_APPROVAL ( #135, ( #273 ) ) ;
#296 = FACE_OUTER_BOUND ( 'NONE', #254, .T. ) ;
#297 = EDGE_CURVE ( 'NONE', #77, #189, #157, .T. ) ;
#298 = CARTESIAN_POINT ( 'NONE',  ( 3.250000000000000444, 3.980102097228898231E-16, 320.0000000000000000 ) ) ;
#299 = CALENDAR_DATE ( 2022, 7, 7 ) ;
#300 = CALENDAR_DATE ( 2022, 7, 7 ) ;
#301 = PERSON_AND_ORGANIZATION_ROLE ( 'classification_officer' ) ;
#302 = DIRECTION ( 'NONE',  ( 1.000000000000000000, 0.000000000000000000, 0.000000000000000000 ) ) ;
#303 = VECTOR ( 'NONE', #7, 1000.000000000000000 ) ;
#304 = PERSON_AND_ORGANIZATION ( #246, #79 ) ;
#305 = CARTESIAN_POINT ( 'NONE',  ( 0.000000000000000000, 0.000000000000000000, 0.000000000000000000 ) ) ;
#306 = AXIS2_PLACEMENT_3D ( 'NONE', #39, #163, #67 ) ;
#307 = CC_DESIGN_SECURITY_CLASSIFICATION ( #273, ( #227 ) ) ;
ENDSEC;
END-ISO-10303-21;
