ISO-10303-21;
HEADER;
FILE_DESCRIPTION (( 'STEP AP203' ),
    '1' );
FILE_NAME ('d7ae.STEP',
    '2022-07-07T12:21:41',
    ( '' ),
    ( '' ),
    'SwSTEP 2.0',
    'SolidWorks 2019',
    '' );
FILE_SCHEMA (( 'CONFIG_CONTROL_DESIGN' ));
ENDSEC;

DATA;
#1 = TOROIDAL_SURFACE ( 'NONE', #105, 7.200000000000000178, 0.2000000000000000111 ) ;
#2 = APPLICATION_PROTOCOL_DEFINITION ( 'international standard', 'config_control_design', 1994, #168 ) ;
#3 = EDGE_CURVE ( 'NONE', #296, #110, #111, .T. ) ;
#4 = CALENDAR_DATE ( 2022, 7, 7 ) ;
#5 = DIRECTION ( 'NONE',  ( 1.000000000000000000, 0.000000000000000000, 0.000000000000000000 ) ) ;
#6 = DATE_AND_TIME ( #226, #43 ) ;
#7 = ORIENTED_EDGE ( 'NONE', *, *, #50, .F. ) ;
#8 = EDGE_CURVE ( 'NONE', #298, #296, #80, .T. ) ;
#9 = EDGE_LOOP ( 'NONE', ( #211, #166, #48, #88 ) ) ;
#10 = ADVANCED_FACE ( 'NONE', ( #83, #17 ), #275, .T. ) ;
#11 = VECTOR ( 'NONE', #217, 1000.000000000000000 ) ;
#12 = CARTESIAN_POINT ( 'NONE',  ( 0.000000000000000000, 0.000000000000000000, 507.0000000000000000 ) ) ;
#13 = VERTEX_POINT ( 'NONE', #261 ) ;
#14 = DIRECTION ( 'NONE',  ( -1.000000000000000000, 1.224646799147358384E-16, 0.000000000000000000 ) ) ;
#15 = FACE_OUTER_BOUND ( 'NONE', #183, .T. ) ;
#16 = CARTESIAN_POINT ( 'NONE',  ( 7.000000000000000000, 8.572527594031473190E-16, 507.0000000000000000 ) ) ;
#17 = FACE_OUTER_BOUND ( 'NONE', #33, .T. ) ;
#18 = CIRCLE ( 'NONE', #97, 0.1999999999999996503 ) ;
#19 = DIRECTION ( 'NONE',  ( 0.000000000000000000, 0.000000000000000000, 1.000000000000000000 ) ) ;
#20 = CARTESIAN_POINT ( 'NONE',  ( 7.200000000000000178, 0.000000000000000000, 7.199999999999984190 ) ) ;
#21 = CARTESIAN_POINT ( 'NONE',  ( 0.000000000000000000, 0.000000000000000000, 7.000000000000000000 ) ) ;
#22 = APPROVAL ( #288, 'NEURÈENÝ' ) ;
#23 = CARTESIAN_POINT ( 'NONE',  ( -7.200000000000000178, 8.817456953860942303E-16, 6.999999999999992006 ) ) ;
#24 = LOCAL_TIME ( 14, 21, 41.00000000000000000, #291 ) ;
#25 = SHAPE_DEFINITION_REPRESENTATION ( #173, #63 ) ;
#26 = PERSON_AND_ORGANIZATION_ROLE ( 'design_supplier' ) ;
#27 = AXIS2_PLACEMENT_3D ( 'NONE', #138, #95, #196 ) ;
#28 = PERSON_AND_ORGANIZATION ( #182, #79 ) ;
#29 = PERSON_AND_ORGANIZATION ( #182, #79 ) ;
#30 = CIRCLE ( 'NONE', #171, 7.200000000000000178 ) ;
#31 = ORIENTED_EDGE ( 'NONE', *, *, #66, .F. ) ;
#32 = AXIS2_PLACEMENT_3D ( 'NONE', #115, #172, #265 ) ;
#33 = EDGE_LOOP ( 'NONE', ( #278, #229 ) ) ;
#34 = ORIENTED_EDGE ( 'NONE', *, *, #3, .F. ) ;
#35 = DIRECTION ( 'NONE',  ( -1.000000000000000000, 0.000000000000000000, 0.000000000000000000 ) ) ;
#36 = ADVANCED_FACE ( 'NONE', ( #164 ), #103, .F. ) ;
#37 = AXIS2_PLACEMENT_3D ( 'NONE', #299, #284, #35 ) ;
#38 =( NAMED_UNIT ( * ) PLANE_ANGLE_UNIT ( ) SI_UNIT ( $, .RADIAN. ) );
#39 = DIRECTION ( 'NONE',  ( 1.000000000000000000, 0.000000000000000000, 0.000000000000000000 ) ) ;
#40 = CARTESIAN_POINT ( 'NONE',  ( -11.00000000000000000, 0.000000000000000000, 7.000000000000000000 ) ) ;
#41 = CARTESIAN_POINT ( 'NONE',  ( 0.000000000000000000, 0.000000000000000000, 7.000000000000000000 ) ) ;
#42 = DATE_AND_TIME ( #289, #268 ) ;
#43 = LOCAL_TIME ( 14, 21, 41.00000000000000000, #223 ) ;
#44 = APPROVAL ( #126, 'NEURÈENÝ' ) ;
#45 = COORDINATED_UNIVERSAL_TIME_OFFSET ( 1, 0, .AHEAD. ) ;
#46 = AXIS2_PLACEMENT_3D ( 'NONE', #185, #57, #258 ) ;
#47 = PERSON_AND_ORGANIZATION ( #182, #79 ) ;
#48 = ORIENTED_EDGE ( 'NONE', *, *, #3, .T. ) ;
#49 = APPLICATION_PROTOCOL_DEFINITION ( 'international standard', 'config_control_design', 1994, #152 ) ;
#50 = EDGE_CURVE ( 'NONE', #179, #13, #272, .T. ) ;
#51 = ORIENTED_EDGE ( 'NONE', *, *, #77, .T. ) ;
#52 = ADVANCED_FACE ( 'NONE', ( #15 ), #93, .T. ) ;
#53 = CC_DESIGN_APPROVAL ( #22, ( #188 ) ) ;
#54 = VERTEX_POINT ( 'NONE', #160 ) ;
#55 = CARTESIAN_POINT ( 'NONE',  ( 0.000000000000000000, 0.000000000000000000, 507.0000000000000000 ) ) ;
#56 = ADVANCED_FACE ( 'NONE', ( #193 ), #114, .T. ) ;
#57 = DIRECTION ( 'NONE',  ( -0.000000000000000000, -0.000000000000000000, -1.000000000000000000 ) ) ;
#58 = DIRECTION ( 'NONE',  ( 0.000000000000000000, 0.000000000000000000, 1.000000000000000000 ) ) ;
#59 = ORIENTED_EDGE ( 'NONE', *, *, #50, .T. ) ;
#60 = CARTESIAN_POINT ( 'NONE',  ( 0.000000000000000000, 0.000000000000000000, 7.199999999999984190 ) ) ;
#61 = ORIENTED_EDGE ( 'NONE', *, *, #305, .F. ) ;
#62 = CARTESIAN_POINT ( 'NONE',  ( 0.000000000000000000, 0.000000000000000000, 507.0000000000000000 ) ) ;
#63 = ADVANCED_BREP_SHAPE_REPRESENTATION ( 'd7ae', ( #194, #221 ), #181 ) ;
#64 = VERTEX_POINT ( 'NONE', #91 ) ;
#65 = DIRECTION ( 'NONE',  ( -0.000000000000000000, -0.000000000000000000, -1.000000000000000000 ) ) ;
#66 = EDGE_CURVE ( 'NONE', #146, #264, #125, .T. ) ;
#67 = CARTESIAN_POINT ( 'NONE',  ( 0.000000000000000000, 0.000000000000000000, 7.000000000000000000 ) ) ;
#68 = AXIS2_PLACEMENT_3D ( 'NONE', #41, #191, #243 ) ;
#69 = DIRECTION ( 'NONE',  ( -0.000000000000000000, -0.000000000000000000, -1.000000000000000000 ) ) ;
#70 = APPROVAL_ROLE ( '' ) ;
#71 = ADVANCED_FACE ( 'NONE', ( #136 ), #233, .T. ) ;
#72 = CIRCLE ( 'NONE', #68, 7.200000000000000178 ) ;
#73 = CALENDAR_DATE ( 2022, 7, 7 ) ;
#74 = COORDINATED_UNIVERSAL_TIME_OFFSET ( 1, 0, .AHEAD. ) ;
#75 = AXIS2_PLACEMENT_3D ( 'NONE', #55, #262, #85 ) ;
#76 = ORIENTED_EDGE ( 'NONE', *, *, #77, .F. ) ;
#77 = EDGE_CURVE ( 'NONE', #64, #54, #227, .T. ) ;
#78 = ORIENTED_EDGE ( 'NONE', *, *, #8, .F. ) ;
#79 = ORGANIZATION ( 'NEURÈENÝ', 'NEURÈENÝ', '' ) ;
#80 = CIRCLE ( 'NONE', #177, 7.000000000000000000 ) ;
#81 = ORIENTED_EDGE ( 'NONE', *, *, #87, .T. ) ;
#82 = CC_DESIGN_APPROVAL ( #200, ( #230 ) ) ;
#83 = FACE_BOUND ( 'NONE', #274, .T. ) ;
#84 = AXIS2_PLACEMENT_3D ( 'NONE', #20, #295, #213 ) ;
#85 = DIRECTION ( 'NONE',  ( 1.000000000000000000, 0.000000000000000000, -0.000000000000000000 ) ) ;
#86 = DIRECTION ( 'NONE',  ( 1.000000000000000000, 0.000000000000000000, 0.000000000000000000 ) ) ;
#87 = EDGE_CURVE ( 'NONE', #54, #64, #306, .T. ) ;
#88 = ORIENTED_EDGE ( 'NONE', *, *, #107, .F. ) ;
#89 =( LENGTH_UNIT ( ) NAMED_UNIT ( * ) SI_UNIT ( .MILLI., .METRE. ) );
#90 = CIRCLE ( 'NONE', #159, 11.00000000000000000 ) ;
#91 = CARTESIAN_POINT ( 'NONE',  ( 11.00000000000000000, 1.347111479062088405E-15, 0.000000000000000000 ) ) ;
#92 = CARTESIAN_POINT ( 'NONE',  ( 11.00000000000000000, 1.347111479062088405E-15, 7.000000000000000000 ) ) ;
#93 = PLANE ( 'NONE',  #75 ) ;
#94 = DIRECTION ( 'NONE',  ( 1.000000000000000000, 0.000000000000000000, -0.000000000000000000 ) ) ;
#95 = DIRECTION ( 'NONE',  ( 0.000000000000000000, 0.000000000000000000, 1.000000000000000000 ) ) ;
#96 = CYLINDRICAL_SURFACE ( 'NONE', #175, 11.00000000000000000 ) ;
#97 = AXIS2_PLACEMENT_3D ( 'NONE', #186, #260, #14 ) ;
#98 = DATE_AND_TIME ( #199, #205 ) ;
#99 = CC_DESIGN_PERSON_AND_ORGANIZATION_ASSIGNMENT ( #270, #26, ( #230 ) ) ;
#100 = DATE_AND_TIME ( #73, #24 ) ;
#101 = DATE_TIME_ROLE ( 'creation_date' ) ;
#102 = DATE_TIME_ROLE ( 'classification_date' ) ;
#103 = TOROIDAL_SURFACE ( 'NONE', #293, 7.200000000000000178, 0.2000000000000000111 ) ;
#104 = ORIENTED_EDGE ( 'NONE', *, *, #132, .F. ) ;
#105 = AXIS2_PLACEMENT_3D ( 'NONE', #287, #58, #215 ) ;
#106 = PRODUCT_DEFINITION ( 'NEZNÁMÝ', '', #230, #202 ) ;
#107 = EDGE_CURVE ( 'NONE', #231, #110, #30, .T. ) ;
#108 = ORIENTED_EDGE ( 'NONE', *, *, #273, .T. ) ;
#109 = VECTOR ( 'NONE', #280, 1000.000000000000000 ) ;
#110 = VERTEX_POINT ( 'NONE', #162 ) ;
#111 = CIRCLE ( 'NONE', #84, 0.1999999999999996503 ) ;
#112 = ORIENTED_EDGE ( 'NONE', *, *, #266, .T. ) ;
#113 = CYLINDRICAL_SURFACE ( 'NONE', #234, 7.000000000000000000 ) ;
#114 = CYLINDRICAL_SURFACE ( 'NONE', #37, 11.00000000000000000 ) ;
#115 = CARTESIAN_POINT ( 'NONE',  ( 0.000000000000000000, 0.000000000000000000, 507.0000000000000000 ) ) ;
#116 = AXIS2_PLACEMENT_3D ( 'NONE', #167, #19, #94 ) ;
#117 = PRODUCT_RELATED_PRODUCT_CATEGORY ( 'detail', '', ( #192 ) ) ;
#118 = CARTESIAN_POINT ( 'NONE',  ( 0.000000000000000000, 0.000000000000000000, 7.199999999999984190 ) ) ;
#119 = DIRECTION ( 'NONE',  ( 0.000000000000000000, 0.000000000000000000, 1.000000000000000000 ) ) ;
#120 = DIRECTION ( 'NONE',  ( 1.000000000000000000, 0.000000000000000000, -0.000000000000000000 ) ) ;
#121 = AXIS2_PLACEMENT_3D ( 'NONE', #12, #140, #302 ) ;
#122 = DIRECTION ( 'NONE',  ( -0.000000000000000000, -0.000000000000000000, -1.000000000000000000 ) ) ;
#123 = APPROVAL_DATE_TIME ( #178, #200 ) ;
#124 = VECTOR ( 'NONE', #141, 1000.000000000000000 ) ;
#125 = CIRCLE ( 'NONE', #151, 11.00000000000000000 ) ;
#126 = APPROVAL_STATUS ( 'not_yet_approved' ) ;
#127 = PERSON_AND_ORGANIZATION_ROLE ( 'classification_officer' ) ;
#128 = EDGE_LOOP ( 'NONE', ( #104, #31, #271, #81 ) ) ;
#129 = ORIENTED_EDGE ( 'NONE', *, *, #245, .F. ) ;
#130 = EDGE_LOOP ( 'NONE', ( #129, #242, #51, #61 ) ) ;
#131 = CIRCLE ( 'NONE', #290, 7.000000000000000000 ) ;
#132 = EDGE_CURVE ( 'NONE', #264, #64, #285, .T. ) ;
#133 = UNCERTAINTY_MEASURE_WITH_UNIT (LENGTH_MEASURE( 1.000000000000000082E-05 ), #89, 'distance_accuracy_value', 'NONE');
#134 = ORIENTED_EDGE ( 'NONE', *, *, #292, .T. ) ;
#135 = ORIENTED_EDGE ( 'NONE', *, *, #165, .F. ) ;
#136 = FACE_OUTER_BOUND ( 'NONE', #294, .T. ) ;
#137 = ADVANCED_FACE ( 'NONE', ( #148 ), #113, .T. ) ;
#138 = CARTESIAN_POINT ( 'NONE',  ( 0.000000000000000000, 0.000000000000000000, 0.000000000000000000 ) ) ;
#139 = LINE ( 'NONE', #197, #11 ) ;
#140 = DIRECTION ( 'NONE',  ( 0.000000000000000000, 0.000000000000000000, 1.000000000000000000 ) ) ;
#141 = DIRECTION ( 'NONE',  ( -0.000000000000000000, -0.000000000000000000, -1.000000000000000000 ) ) ;
#142 = CC_DESIGN_PERSON_AND_ORGANIZATION_ASSIGNMENT ( #28, #180, ( #230 ) ) ;
#143 = DIRECTION ( 'NONE',  ( 0.000000000000000000, 0.000000000000000000, 1.000000000000000000 ) ) ;
#144 = DIRECTION ( 'NONE',  ( 1.000000000000000000, 0.000000000000000000, 0.000000000000000000 ) ) ;
#145 = CC_DESIGN_DATE_AND_TIME_ASSIGNMENT ( #6, #102, ( #188 ) ) ;
#146 = VERTEX_POINT ( 'NONE', #40 ) ;
#147 = DIRECTION ( 'NONE',  ( 0.000000000000000000, 0.000000000000000000, 1.000000000000000000 ) ) ;
#148 = FACE_OUTER_BOUND ( 'NONE', #169, .T. ) ;
#149 = LOCAL_TIME ( 14, 21, 41.00000000000000000, #74 ) ;
#150 = APPROVAL_STATUS ( 'not_yet_approved' ) ;
#151 = AXIS2_PLACEMENT_3D ( 'NONE', #190, #281, #39 ) ;
#152 = APPLICATION_CONTEXT ( 'configuration controlled 3d designs of mechanical parts and assemblies' ) ;
#153 = APPROVAL_ROLE ( '' ) ;
#154 = EDGE_CURVE ( 'NONE', #13, #296, #303, .T. ) ;
#155 = PERSON_AND_ORGANIZATION_ROLE ( 'design_owner' ) ;
#156 = EDGE_LOOP ( 'NONE', ( #206, #76 ) ) ;
#157 = ADVANCED_FACE ( 'NONE', ( #301 ), #96, .T. ) ;
#158 = ORIENTED_EDGE ( 'NONE', *, *, #8, .T. ) ;
#159 = AXIS2_PLACEMENT_3D ( 'NONE', #21, #147, #144 ) ;
#160 = CARTESIAN_POINT ( 'NONE',  ( -11.00000000000000000, 0.000000000000000000, 0.000000000000000000 ) ) ;
#161 = DIRECTION ( 'NONE',  ( 1.000000000000000000, 0.000000000000000000, 0.000000000000000000 ) ) ;
#162 = CARTESIAN_POINT ( 'NONE',  ( 7.200000000000000178, 0.000000000000000000, 6.999999999999992006 ) ) ;
#163 = CC_DESIGN_PERSON_AND_ORGANIZATION_ASSIGNMENT ( #201, #155, ( #192 ) ) ;
#164 = FACE_OUTER_BOUND ( 'NONE', #253, .T. ) ;
#165 = EDGE_CURVE ( 'NONE', #110, #231, #72, .T. ) ;
#166 = ORIENTED_EDGE ( 'NONE', *, *, #292, .F. ) ;
#167 = CARTESIAN_POINT ( 'NONE',  ( 0.000000000000000000, 0.000000000000000000, 0.000000000000000000 ) ) ;
#168 = APPLICATION_CONTEXT ( 'configuration controlled 3d designs of mechanical parts and assemblies' ) ;
#169 = EDGE_LOOP ( 'NONE', ( #240, #7, #112, #158 ) ) ;
#170 = PLANE ( 'NONE',  #116 ) ;
#171 = AXIS2_PLACEMENT_3D ( 'NONE', #67, #212, #86 ) ;
#172 = DIRECTION ( 'NONE',  ( 0.000000000000000000, 0.000000000000000000, 1.000000000000000000 ) ) ;
#173 = PRODUCT_DEFINITION_SHAPE ( 'NONE', 'NONE',  #106 ) ;
#174 = PERSON_AND_ORGANIZATION ( #182, #79 ) ;
#175 = AXIS2_PLACEMENT_3D ( 'NONE', #219, #65, #307 ) ;
#176 = APPROVAL_DATE_TIME ( #100, #44 ) ;
#177 = AXIS2_PLACEMENT_3D ( 'NONE', #238, #235, #161 ) ;
#178 = DATE_AND_TIME ( #4, #149 ) ;
#179 = VERTEX_POINT ( 'NONE', #283 ) ;
#180 = PERSON_AND_ORGANIZATION_ROLE ( 'creator' ) ;
#181 =( GEOMETRIC_REPRESENTATION_CONTEXT ( 3 ) GLOBAL_UNCERTAINTY_ASSIGNED_CONTEXT ( ( #133 ) ) GLOBAL_UNIT_ASSIGNED_CONTEXT ( ( #89, #38, #247 ) ) REPRESENTATION_CONTEXT ( 'NONE', 'WORKASPACE' ) );
#182 = PERSON ( 'NEURÈENÝ', 'NEURÈENÝ', 'NEURÈENÝ', ('NEURÈENÝ'), ('NEURÈENÝ'), ('NEURÈENÝ') ) ;
#183 = EDGE_LOOP ( 'NONE', ( #59, #251 ) ) ;
#184 = AXIS2_PLACEMENT_3D ( 'NONE', #209, #276, #120 ) ;
#185 = CARTESIAN_POINT ( 'NONE',  ( 0.000000000000000000, 0.000000000000000000, 507.0000000000000000 ) ) ;
#186 = CARTESIAN_POINT ( 'NONE',  ( -7.200000000000000178, 8.817456953860942303E-16, 7.199999999999984190 ) ) ;
#187 = ORIENTED_EDGE ( 'NONE', *, *, #165, .T. ) ;
#188 = SECURITY_CLASSIFICATION ( '', '', #250 ) ;
#189 = CARTESIAN_POINT ( 'NONE',  ( 11.00000000000000000, 1.347111479062088405E-15, 7.000000000000000000 ) ) ;
#190 = CARTESIAN_POINT ( 'NONE',  ( 0.000000000000000000, 0.000000000000000000, 7.000000000000000000 ) ) ;
#191 = DIRECTION ( 'NONE',  ( -0.000000000000000000, -0.000000000000000000, -1.000000000000000000 ) ) ;
#192 = PRODUCT ( 'd7ae', 'd7ae', '', ( #252 ) ) ;
#193 = FACE_OUTER_BOUND ( 'NONE', #130, .T. ) ;
#194 = MANIFOLD_SOLID_BREP ( 'Zaoblit1', #237 ) ;
#195 = CARTESIAN_POINT ( 'NONE',  ( -11.00000000000000000, 0.000000000000000000, 7.000000000000000000 ) ) ;
#196 = DIRECTION ( 'NONE',  ( 1.000000000000000000, 0.000000000000000000, 0.000000000000000000 ) ) ;
#197 = CARTESIAN_POINT ( 'NONE',  ( -7.000000000000000000, 0.000000000000000000, 507.0000000000000000 ) ) ;
#198 = APPROVAL_ROLE ( '' ) ;
#199 = CALENDAR_DATE ( 2022, 7, 7 ) ;
#200 = APPROVAL ( #150, 'NEURÈENÝ' ) ;
#201 = PERSON_AND_ORGANIZATION ( #182, #79 ) ;
#202 = DESIGN_CONTEXT ( 'detailed design', #168, 'design' ) ;
#203 = PERSON_AND_ORGANIZATION ( #182, #79 ) ;
#204 = ORIENTED_EDGE ( 'NONE', *, *, #107, .T. ) ;
#205 = LOCAL_TIME ( 14, 21, 41.00000000000000000, #45 ) ;
#206 = ORIENTED_EDGE ( 'NONE', *, *, #87, .F. ) ;
#207 = ADVANCED_FACE ( 'NONE', ( #239 ), #170, .F. ) ;
#208 = VECTOR ( 'NONE', #69, 1000.000000000000000 ) ;
#209 = CARTESIAN_POINT ( 'NONE',  ( 0.000000000000000000, 0.000000000000000000, 7.000000000000000000 ) ) ;
#210 = LINE ( 'NONE', #195, #109 ) ;
#211 = ORIENTED_EDGE ( 'NONE', *, *, #273, .F. ) ;
#212 = DIRECTION ( 'NONE',  ( -0.000000000000000000, -0.000000000000000000, -1.000000000000000000 ) ) ;
#213 = DIRECTION ( 'NONE',  ( 0.000000000000000000, 0.000000000000000000, -1.000000000000000000 ) ) ;
#214 = AXIS2_PLACEMENT_3D ( 'NONE', #218, #304, #286 ) ;
#215 = DIRECTION ( 'NONE',  ( 1.000000000000000000, 0.000000000000000000, 0.000000000000000000 ) ) ;
#216 = DIRECTION ( 'NONE',  ( 1.000000000000000000, 0.000000000000000000, 0.000000000000000000 ) ) ;
#217 = DIRECTION ( 'NONE',  ( -0.000000000000000000, -0.000000000000000000, -1.000000000000000000 ) ) ;
#218 = CARTESIAN_POINT ( 'NONE',  ( 0.000000000000000000, 0.000000000000000000, 0.000000000000000000 ) ) ;
#219 = CARTESIAN_POINT ( 'NONE',  ( 0.000000000000000000, 0.000000000000000000, 7.000000000000000000 ) ) ;
#220 = PERSON_AND_ORGANIZATION ( #182, #79 ) ;
#221 = AXIS2_PLACEMENT_3D ( 'NONE', #249, #224, #5 ) ;
#222 = ADVANCED_FACE ( 'NONE', ( #297 ), #1, .F. ) ;
#223 = COORDINATED_UNIVERSAL_TIME_OFFSET ( 1, 0, .AHEAD. ) ;
#224 = DIRECTION ( 'NONE',  ( 0.000000000000000000, 0.000000000000000000, 1.000000000000000000 ) ) ;
#225 = CIRCLE ( 'NONE', #32, 7.000000000000000000 ) ;
#226 = CALENDAR_DATE ( 2022, 7, 7 ) ;
#227 = CIRCLE ( 'NONE', #27, 11.00000000000000000 ) ;
#228 = ORIENTED_EDGE ( 'NONE', *, *, #282, .F. ) ;
#229 = ORIENTED_EDGE ( 'NONE', *, *, #245, .T. ) ;
#230 = PRODUCT_DEFINITION_FORMATION_WITH_SPECIFIED_SOURCE ( 'LIBOVOLNÝ', '', #192, .NOT_KNOWN. ) ;
#231 = VERTEX_POINT ( 'NONE', #23 ) ;
#232 = CC_DESIGN_PERSON_AND_ORGANIZATION_ASSIGNMENT ( #174, #269, ( #106 ) ) ;
#233 = CYLINDRICAL_SURFACE ( 'NONE', #46, 7.000000000000000000 ) ;
#234 = AXIS2_PLACEMENT_3D ( 'NONE', #62, #122, #236 ) ;
#235 = DIRECTION ( 'NONE',  ( 0.000000000000000000, 0.000000000000000000, 1.000000000000000000 ) ) ;
#236 = DIRECTION ( 'NONE',  ( -1.000000000000000000, 0.000000000000000000, 0.000000000000000000 ) ) ;
#237 = CLOSED_SHELL ( 'NONE', ( #36, #71, #56, #157, #10, #207, #137, #52, #222 ) ) ;
#238 = CARTESIAN_POINT ( 'NONE',  ( 0.000000000000000000, 0.000000000000000000, 7.199999999999984190 ) ) ;
#239 = FACE_OUTER_BOUND ( 'NONE', #156, .T. ) ;
#240 = ORIENTED_EDGE ( 'NONE', *, *, #154, .F. ) ;
#241 = APPROVAL_PERSON_ORGANIZATION ( #203, #22, #70 ) ;
#242 = ORIENTED_EDGE ( 'NONE', *, *, #132, .T. ) ;
#243 = DIRECTION ( 'NONE',  ( 1.000000000000000000, 0.000000000000000000, 0.000000000000000000 ) ) ;
#244 = DIRECTION ( 'NONE',  ( 1.000000000000000000, 0.000000000000000000, 0.000000000000000000 ) ) ;
#245 = EDGE_CURVE ( 'NONE', #264, #146, #90, .T. ) ;
#246 = APPROVAL_DATE_TIME ( #42, #22 ) ;
#247 =( NAMED_UNIT ( * ) SI_UNIT ( $, .STERADIAN. ) SOLID_ANGLE_UNIT ( ) );
#248 = CC_DESIGN_PERSON_AND_ORGANIZATION_ASSIGNMENT ( #29, #127, ( #188 ) ) ;
#249 = CARTESIAN_POINT ( 'NONE',  ( 0.000000000000000000, 0.000000000000000000, 0.000000000000000000 ) ) ;
#250 = SECURITY_CLASSIFICATION_LEVEL ( 'unclassified' ) ;
#251 = ORIENTED_EDGE ( 'NONE', *, *, #282, .T. ) ;
#252 = MECHANICAL_CONTEXT ( 'NONE', #152, 'mechanical' ) ;
#253 = EDGE_LOOP ( 'NONE', ( #78, #108, #135, #34 ) ) ;
#254 = CC_DESIGN_DATE_AND_TIME_ASSIGNMENT ( #98, #101, ( #106 ) ) ;
#255 = CC_DESIGN_APPROVAL ( #44, ( #106 ) ) ;
#256 = ORIENTED_EDGE ( 'NONE', *, *, #154, .T. ) ;
#257 = ORIENTED_EDGE ( 'NONE', *, *, #266, .F. ) ;
#258 = DIRECTION ( 'NONE',  ( -1.000000000000000000, 0.000000000000000000, 0.000000000000000000 ) ) ;
#259 = APPROVAL_PERSON_ORGANIZATION ( #47, #44, #153 ) ;
#260 = DIRECTION ( 'NONE',  ( 1.224646799147353207E-16, 1.000000000000000000, -0.000000000000000000 ) ) ;
#261 = CARTESIAN_POINT ( 'NONE',  ( 7.000000000000000000, 8.572527594031473190E-16, 507.0000000000000000 ) ) ;
#262 = DIRECTION ( 'NONE',  ( 0.000000000000000000, 0.000000000000000000, 1.000000000000000000 ) ) ;
#263 = CARTESIAN_POINT ( 'NONE',  ( 7.000000000000000000, 8.572527594031473190E-16, 7.199999999999984190 ) ) ;
#264 = VERTEX_POINT ( 'NONE', #189 ) ;
#265 = DIRECTION ( 'NONE',  ( 1.000000000000000000, 0.000000000000000000, 0.000000000000000000 ) ) ;
#266 = EDGE_CURVE ( 'NONE', #179, #298, #139, .T. ) ;
#267 = COORDINATED_UNIVERSAL_TIME_OFFSET ( 1, 0, .AHEAD. ) ;
#268 = LOCAL_TIME ( 14, 21, 41.00000000000000000, #267 ) ;
#269 = PERSON_AND_ORGANIZATION_ROLE ( 'creator' ) ;
#270 = PERSON_AND_ORGANIZATION ( #182, #79 ) ;
#271 = ORIENTED_EDGE ( 'NONE', *, *, #305, .T. ) ;
#272 = CIRCLE ( 'NONE', #121, 7.000000000000000000 ) ;
#273 = EDGE_CURVE ( 'NONE', #298, #231, #18, .T. ) ;
#274 = EDGE_LOOP ( 'NONE', ( #187, #204 ) ) ;
#275 = PLANE ( 'NONE',  #184 ) ;
#276 = DIRECTION ( 'NONE',  ( 0.000000000000000000, 0.000000000000000000, 1.000000000000000000 ) ) ;
#277 = CARTESIAN_POINT ( 'NONE',  ( -7.000000000000000000, 0.000000000000000000, 7.199999999999984190 ) ) ;
#278 = ORIENTED_EDGE ( 'NONE', *, *, #66, .T. ) ;
#279 = APPROVAL_PERSON_ORGANIZATION ( #220, #200, #198 ) ;
#280 = DIRECTION ( 'NONE',  ( -0.000000000000000000, -0.000000000000000000, -1.000000000000000000 ) ) ;
#281 = DIRECTION ( 'NONE',  ( 0.000000000000000000, 0.000000000000000000, 1.000000000000000000 ) ) ;
#282 = EDGE_CURVE ( 'NONE', #13, #179, #225, .T. ) ;
#283 = CARTESIAN_POINT ( 'NONE',  ( -7.000000000000000000, 0.000000000000000000, 507.0000000000000000 ) ) ;
#284 = DIRECTION ( 'NONE',  ( -0.000000000000000000, -0.000000000000000000, -1.000000000000000000 ) ) ;
#285 = LINE ( 'NONE', #92, #208 ) ;
#286 = DIRECTION ( 'NONE',  ( 1.000000000000000000, 0.000000000000000000, 0.000000000000000000 ) ) ;
#287 = CARTESIAN_POINT ( 'NONE',  ( 0.000000000000000000, 0.000000000000000000, 7.199999999999984190 ) ) ;
#288 = APPROVAL_STATUS ( 'not_yet_approved' ) ;
#289 = CALENDAR_DATE ( 2022, 7, 7 ) ;
#290 = AXIS2_PLACEMENT_3D ( 'NONE', #60, #119, #244 ) ;
#291 = COORDINATED_UNIVERSAL_TIME_OFFSET ( 1, 0, .AHEAD. ) ;
#292 = EDGE_CURVE ( 'NONE', #296, #298, #131, .T. ) ;
#293 = AXIS2_PLACEMENT_3D ( 'NONE', #118, #143, #216 ) ;
#294 = EDGE_LOOP ( 'NONE', ( #228, #256, #134, #257 ) ) ;
#295 = DIRECTION ( 'NONE',  ( 0.000000000000000000, -1.000000000000000000, 0.000000000000000000 ) ) ;
#296 = VERTEX_POINT ( 'NONE', #263 ) ;
#297 = FACE_OUTER_BOUND ( 'NONE', #9, .T. ) ;
#298 = VERTEX_POINT ( 'NONE', #277 ) ;
#299 = CARTESIAN_POINT ( 'NONE',  ( 0.000000000000000000, 0.000000000000000000, 7.000000000000000000 ) ) ;
#300 = CC_DESIGN_SECURITY_CLASSIFICATION ( #188, ( #230 ) ) ;
#301 = FACE_OUTER_BOUND ( 'NONE', #128, .T. ) ;
#302 = DIRECTION ( 'NONE',  ( 1.000000000000000000, 0.000000000000000000, 0.000000000000000000 ) ) ;
#303 = LINE ( 'NONE', #16, #124 ) ;
#304 = DIRECTION ( 'NONE',  ( 0.000000000000000000, 0.000000000000000000, 1.000000000000000000 ) ) ;
#305 = EDGE_CURVE ( 'NONE', #146, #54, #210, .T. ) ;
#306 = CIRCLE ( 'NONE', #214, 11.00000000000000000 ) ;
#307 = DIRECTION ( 'NONE',  ( -1.000000000000000000, 0.000000000000000000, 0.000000000000000000 ) ) ;
ENDSEC;
END-ISO-10303-21;
