ISO-10303-21;
HEADER;
FILE_DESCRIPTION (( 'STEP AP203' ),
    '1' );
FILE_NAME ('43a8.STEP',
    '2022-07-07T12:51:27',
    ( '' ),
    ( '' ),
    'SwSTEP 2.0',
    'SolidWorks 2019',
    '' );
FILE_SCHEMA (( 'CONFIG_CONTROL_DESIGN' ));
ENDSEC;

DATA;
#1 = APPLICATION_PROTOCOL_DEFINITION ( 'international standard', 'config_control_design', 1994, #177 ) ;
#2 = CIRCLE ( 'NONE', #55, 2.200000000000000178 ) ;
#3 = ORIENTED_EDGE ( 'NONE', *, *, #58, .T. ) ;
#4 = APPLICATION_PROTOCOL_DEFINITION ( 'international standard', 'config_control_design', 1994, #158 ) ;
#5 = ORIENTED_EDGE ( 'NONE', *, *, #267, .T. ) ;
#6 = DATE_AND_TIME ( #219, #125 ) ;
#7 = DIRECTION ( 'NONE',  ( 0.000000000000000000, 0.000000000000000000, 1.000000000000000000 ) ) ;
#8 = AXIS2_PLACEMENT_3D ( 'NONE', #287, #67, #47 ) ;
#9 = APPROVAL_STATUS ( 'not_yet_approved' ) ;
#10 = ORIENTED_EDGE ( 'NONE', *, *, #75, .T. ) ;
#11 = APPROVAL_ROLE ( '' ) ;
#12 = CYLINDRICAL_SURFACE ( 'NONE', #42, 2.000000000000000000 ) ;
#13 = VECTOR ( 'NONE', #139, 1000.000000000000000 ) ;
#14 = FACE_OUTER_BOUND ( 'NONE', #223, .T. ) ;
#15 = DIRECTION ( 'NONE',  ( -0.000000000000000000, -0.000000000000000000, -1.000000000000000000 ) ) ;
#16 = FACE_OUTER_BOUND ( 'NONE', #245, .T. ) ;
#17 = CIRCLE ( 'NONE', #233, 2.200000000000000178 ) ;
#18 = EDGE_CURVE ( 'NONE', #155, #180, #65, .T. ) ;
#19 = ADVANCED_FACE ( 'NONE', ( #214 ), #72, .F. ) ;
#20 = CIRCLE ( 'NONE', #68, 2.000000000000000000 ) ;
#21 = LOCAL_TIME ( 14, 51, 27.00000000000000000, #293 ) ;
#22 = EDGE_LOOP ( 'NONE', ( #198, #273 ) ) ;
#23 = CALENDAR_DATE ( 2022, 7, 7 ) ;
#24 = DIRECTION ( 'NONE',  ( -0.000000000000000000, -0.000000000000000000, -1.000000000000000000 ) ) ;
#25 =( NAMED_UNIT ( * ) PLANE_ANGLE_UNIT ( ) SI_UNIT ( $, .RADIAN. ) );
#26 = ORIENTED_EDGE ( 'NONE', *, *, #185, .T. ) ;
#27 = APPROVAL_PERSON_ORGANIZATION ( #124, #163, #140 ) ;
#28 = DIRECTION ( 'NONE',  ( 1.000000000000000000, 0.000000000000000000, 0.000000000000000000 ) ) ;
#29 = CC_DESIGN_DATE_AND_TIME_ASSIGNMENT ( #224, #157, ( #104 ) ) ;
#30 = DIRECTION ( 'NONE',  ( -1.000000000000000000, 0.000000000000000000, 0.000000000000000000 ) ) ;
#31 = ORIENTED_EDGE ( 'NONE', *, *, #290, .T. ) ;
#32 = DIRECTION ( 'NONE',  ( 1.000000000000000000, 0.000000000000000000, -0.000000000000000000 ) ) ;
#33 = EDGE_LOOP ( 'NONE', ( #77, #129 ) ) ;
#34 = PERSON_AND_ORGANIZATION ( #298, #280 ) ;
#35 = FACE_OUTER_BOUND ( 'NONE', #33, .T. ) ;
#36 = SHAPE_DEFINITION_REPRESENTATION ( #131, #112 ) ;
#37 = CARTESIAN_POINT ( 'NONE',  ( -2.000000000000000000, 0.000000000000000000, 128.0000000000000000 ) ) ;
#38 = ORIENTED_EDGE ( 'NONE', *, *, #269, .F. ) ;
#39 = DIRECTION ( 'NONE',  ( -0.000000000000000000, -0.000000000000000000, -1.000000000000000000 ) ) ;
#40 = CARTESIAN_POINT ( 'NONE',  ( -4.000000000000000000, 0.000000000000000000, 0.000000000000000000 ) ) ;
#41 = EDGE_CURVE ( 'NONE', #56, #300, #20, .T. ) ;
#42 = AXIS2_PLACEMENT_3D ( 'NONE', #105, #80, #301 ) ;
#43 = CARTESIAN_POINT ( 'NONE',  ( 0.000000000000000000, 0.000000000000000000, 0.000000000000000000 ) ) ;
#44 = AXIS2_PLACEMENT_3D ( 'NONE', #66, #149, #166 ) ;
#45 = APPROVAL_STATUS ( 'not_yet_approved' ) ;
#46 = EDGE_LOOP ( 'NONE', ( #257, #241, #239, #252 ) ) ;
#47 = DIRECTION ( 'NONE',  ( 1.000000000000000000, 0.000000000000000000, 0.000000000000000000 ) ) ;
#48 = DIRECTION ( 'NONE',  ( 1.000000000000000000, 0.000000000000000000, 0.000000000000000000 ) ) ;
#49 = ORIENTED_EDGE ( 'NONE', *, *, #208, .F. ) ;
#50 = MECHANICAL_CONTEXT ( 'NONE', #177, 'mechanical' ) ;
#51 = CIRCLE ( 'NONE', #283, 4.000000000000000000 ) ;
#52 = DATE_AND_TIME ( #266, #74 ) ;
#53 = PERSON_AND_ORGANIZATION_ROLE ( 'creator' ) ;
#54 = PERSON_AND_ORGANIZATION ( #298, #280 ) ;
#55 = AXIS2_PLACEMENT_3D ( 'NONE', #249, #15, #108 ) ;
#56 = VERTEX_POINT ( 'NONE', #235 ) ;
#57 = DIRECTION ( 'NONE',  ( -0.000000000000000000, -0.000000000000000000, -1.000000000000000000 ) ) ;
#58 = EDGE_CURVE ( 'NONE', #300, #270, #259, .T. ) ;
#59 = DIRECTION ( 'NONE',  ( 1.000000000000000000, 0.000000000000000000, 0.000000000000000000 ) ) ;
#60 = AXIS2_PLACEMENT_3D ( 'NONE', #156, #202, #61 ) ;
#61 = DIRECTION ( 'NONE',  ( 1.000000000000000000, 0.000000000000000000, 0.000000000000000000 ) ) ;
#62 = ADVANCED_FACE ( 'NONE', ( #211 ), #238, .T. ) ;
#63 = CARTESIAN_POINT ( 'NONE',  ( 0.000000000000000000, 0.000000000000000000, 3.000000000000000000 ) ) ;
#64 = VERTEX_POINT ( 'NONE', #307 ) ;
#65 = CIRCLE ( 'NONE', #8, 4.000000000000000000 ) ;
#66 = CARTESIAN_POINT ( 'NONE',  ( 0.000000000000000000, 0.000000000000000000, 3.199999999999994404 ) ) ;
#67 = DIRECTION ( 'NONE',  ( 0.000000000000000000, 0.000000000000000000, 1.000000000000000000 ) ) ;
#68 = AXIS2_PLACEMENT_3D ( 'NONE', #167, #146, #28 ) ;
#69 = ORIENTED_EDGE ( 'NONE', *, *, #305, .F. ) ;
#70 = APPROVAL ( #258, 'NEURÈENÝ' ) ;
#71 =( NAMED_UNIT ( * ) SI_UNIT ( $, .STERADIAN. ) SOLID_ANGLE_UNIT ( ) );
#72 = PLANE ( 'NONE',  #132 ) ;
#73 = DIRECTION ( 'NONE',  ( 1.000000000000000000, 0.000000000000000000, 0.000000000000000000 ) ) ;
#74 = LOCAL_TIME ( 14, 51, 27.00000000000000000, #189 ) ;
#75 = EDGE_CURVE ( 'NONE', #56, #84, #186, .T. ) ;
#76 = EDGE_LOOP ( 'NONE', ( #38, #205, #306, #49 ) ) ;
#77 = ORIENTED_EDGE ( 'NONE', *, *, #41, .T. ) ;
#78 = PERSON_AND_ORGANIZATION_ROLE ( 'design_supplier' ) ;
#79 = APPROVAL_PERSON_ORGANIZATION ( #34, #109, #11 ) ;
#80 = DIRECTION ( 'NONE',  ( -0.000000000000000000, -0.000000000000000000, -1.000000000000000000 ) ) ;
#81 = EDGE_CURVE ( 'NONE', #64, #180, #127, .T. ) ;
#82 = PERSON_AND_ORGANIZATION ( #298, #280 ) ;
#83 = CYLINDRICAL_SURFACE ( 'NONE', #303, 2.000000000000000000 ) ;
#84 = VERTEX_POINT ( 'NONE', #184 ) ;
#85 = CARTESIAN_POINT ( 'NONE',  ( -2.200000000000000178, 2.694222958124177006E-16, 2.999999999999997335 ) ) ;
#86 = DIRECTION ( 'NONE',  ( 0.000000000000000000, 0.000000000000000000, 1.000000000000000000 ) ) ;
#87 = DIRECTION ( 'NONE',  ( -0.000000000000000000, -0.000000000000000000, -1.000000000000000000 ) ) ;
#88 = CIRCLE ( 'NONE', #160, 0.2000000000000000944 ) ;
#89 = AXIS2_PLACEMENT_3D ( 'NONE', #182, #133, #32 ) ;
#90 = DIRECTION ( 'NONE',  ( 0.000000000000000000, 0.000000000000000000, 1.000000000000000000 ) ) ;
#91 = ORIENTED_EDGE ( 'NONE', *, *, #305, .T. ) ;
#92 = CC_DESIGN_PERSON_AND_ORGANIZATION_ASSIGNMENT ( #217, #143, ( #99 ) ) ;
#93 = CIRCLE ( 'NONE', #221, 2.000000000000000000 ) ;
#94 = ORIENTED_EDGE ( 'NONE', *, *, #81, .F. ) ;
#95 = APPROVAL_ROLE ( '' ) ;
#96 = APPROVAL_DATE_TIME ( #6, #70 ) ;
#97 = APPROVAL_DATE_TIME ( #271, #109 ) ;
#98 = TOROIDAL_SURFACE ( 'NONE', #113, 2.200000000000000178, 0.2000000000000000111 ) ;
#99 = PRODUCT ( '43a8', '43a8', '', ( #50 ) ) ;
#100 = UNCERTAINTY_MEASURE_WITH_UNIT (LENGTH_MEASURE( 1.000000000000000082E-05 ), #171, 'distance_accuracy_value', 'NONE');
#101 = ORIENTED_EDGE ( 'NONE', *, *, #75, .F. ) ;
#102 = CARTESIAN_POINT ( 'NONE',  ( 0.000000000000000000, 0.000000000000000000, 3.199999999999994404 ) ) ;
#103 = CC_DESIGN_APPROVAL ( #163, ( #164 ) ) ;
#104 = SECURITY_CLASSIFICATION ( '', '', #199 ) ;
#105 = CARTESIAN_POINT ( 'NONE',  ( 0.000000000000000000, 0.000000000000000000, 128.0000000000000000 ) ) ;
#106 = VERTEX_POINT ( 'NONE', #251 ) ;
#107 = FACE_OUTER_BOUND ( 'NONE', #170, .T. ) ;
#108 = DIRECTION ( 'NONE',  ( 1.000000000000000000, 0.000000000000000000, 0.000000000000000000 ) ) ;
#109 = APPROVAL ( #9, 'NEURÈENÝ' ) ;
#110 = AXIS2_PLACEMENT_3D ( 'NONE', #220, #121, #286 ) ;
#111 = CARTESIAN_POINT ( 'NONE',  ( 0.000000000000000000, 0.000000000000000000, 128.0000000000000000 ) ) ;
#112 = ADVANCED_BREP_SHAPE_REPRESENTATION ( '43a8', ( #226, #120 ), #255 ) ;
#113 = AXIS2_PLACEMENT_3D ( 'NONE', #276, #154, #231 ) ;
#114 = VERTEX_POINT ( 'NONE', #85 ) ;
#115 = CARTESIAN_POINT ( 'NONE',  ( 2.000000000000000000, 2.449293598294706414E-16, 128.0000000000000000 ) ) ;
#116 = ADVANCED_FACE ( 'NONE', ( #253 ), #98, .F. ) ;
#117 = CARTESIAN_POINT ( 'NONE',  ( 0.000000000000000000, 0.000000000000000000, 3.000000000000000000 ) ) ;
#118 = DIRECTION ( 'NONE',  ( -0.000000000000000000, -0.000000000000000000, -1.000000000000000000 ) ) ;
#119 = EDGE_LOOP ( 'NONE', ( #94, #122, #172, #284 ) ) ;
#120 = AXIS2_PLACEMENT_3D ( 'NONE', #169, #191, #48 ) ;
#121 = DIRECTION ( 'NONE',  ( 1.224646799147353207E-16, 1.000000000000000000, -0.000000000000000000 ) ) ;
#122 = ORIENTED_EDGE ( 'NONE', *, *, #267, .F. ) ;
#123 = COORDINATED_UNIVERSAL_TIME_OFFSET ( 1, 0, .AHEAD. ) ;
#124 = PERSON_AND_ORGANIZATION ( #298, #280 ) ;
#125 = LOCAL_TIME ( 14, 51, 27.00000000000000000, #123 ) ;
#126 = PRODUCT_DEFINITION ( 'NEZNÁMÝ', '', #164, #128 ) ;
#127 = LINE ( 'NONE', #230, #268 ) ;
#128 = DESIGN_CONTEXT ( 'detailed design', #158, 'design' ) ;
#129 = ORIENTED_EDGE ( 'NONE', *, *, #173, .T. ) ;
#130 = CARTESIAN_POINT ( 'NONE',  ( -4.000000000000000000, 0.000000000000000000, 3.000000000000000000 ) ) ;
#131 = PRODUCT_DEFINITION_SHAPE ( 'NONE', 'NONE',  #126 ) ;
#132 = AXIS2_PLACEMENT_3D ( 'NONE', #43, #90, #263 ) ;
#133 = DIRECTION ( 'NONE',  ( 0.000000000000000000, 0.000000000000000000, 1.000000000000000000 ) ) ;
#134 = ORIENTED_EDGE ( 'NONE', *, *, #275, .T. ) ;
#135 = DIRECTION ( 'NONE',  ( -0.000000000000000000, -0.000000000000000000, -1.000000000000000000 ) ) ;
#136 = FACE_OUTER_BOUND ( 'NONE', #292, .T. ) ;
#137 = AXIS2_PLACEMENT_3D ( 'NONE', #117, #24, #212 ) ;
#138 = CC_DESIGN_PERSON_AND_ORGANIZATION_ASSIGNMENT ( #54, #53, ( #164 ) ) ;
#139 = DIRECTION ( 'NONE',  ( -0.000000000000000000, -0.000000000000000000, -1.000000000000000000 ) ) ;
#140 = APPROVAL_ROLE ( '' ) ;
#141 = CARTESIAN_POINT ( 'NONE',  ( 2.000000000000000000, 2.449293598294706414E-16, 128.0000000000000000 ) ) ;
#142 = PRODUCT_RELATED_PRODUCT_CATEGORY ( 'detail', '', ( #99 ) ) ;
#143 = PERSON_AND_ORGANIZATION_ROLE ( 'design_owner' ) ;
#144 = ORIENTED_EDGE ( 'NONE', *, *, #195, .F. ) ;
#145 = DIRECTION ( 'NONE',  ( 0.000000000000000000, 0.000000000000000000, 1.000000000000000000 ) ) ;
#146 = DIRECTION ( 'NONE',  ( 0.000000000000000000, 0.000000000000000000, 1.000000000000000000 ) ) ;
#147 = CLOSED_SHELL ( 'NONE', ( #188, #181, #204, #62, #151, #19, #260, #197, #116 ) ) ;
#148 = PERSON_AND_ORGANIZATION ( #298, #280 ) ;
#149 = DIRECTION ( 'NONE',  ( 0.000000000000000000, 0.000000000000000000, 1.000000000000000000 ) ) ;
#150 = CALENDAR_DATE ( 2022, 7, 7 ) ;
#151 = ADVANCED_FACE ( 'NONE', ( #207, #107 ), #279, .T. ) ;
#152 = CALENDAR_DATE ( 2022, 7, 7 ) ;
#153 = VECTOR ( 'NONE', #39, 1000.000000000000000 ) ;
#154 = DIRECTION ( 'NONE',  ( 0.000000000000000000, 0.000000000000000000, 1.000000000000000000 ) ) ;
#155 = VERTEX_POINT ( 'NONE', #40 ) ;
#156 = CARTESIAN_POINT ( 'NONE',  ( 0.000000000000000000, 0.000000000000000000, 128.0000000000000000 ) ) ;
#157 = DATE_TIME_ROLE ( 'classification_date' ) ;
#158 = APPLICATION_CONTEXT ( 'configuration controlled 3d designs of mechanical parts and assemblies' ) ;
#159 = DIRECTION ( 'NONE',  ( 0.000000000000000000, 0.000000000000000000, 1.000000000000000000 ) ) ;
#160 = AXIS2_PLACEMENT_3D ( 'NONE', #304, #278, #302 ) ;
#161 = DIRECTION ( 'NONE',  ( 1.000000000000000000, 0.000000000000000000, 0.000000000000000000 ) ) ;
#162 = DIRECTION ( 'NONE',  ( -1.000000000000000000, 0.000000000000000000, 0.000000000000000000 ) ) ;
#163 = APPROVAL ( #45, 'NEURÈENÝ' ) ;
#164 = PRODUCT_DEFINITION_FORMATION_WITH_SPECIFIED_SOURCE ( 'LIBOVOLNÝ', '', #99, .NOT_KNOWN. ) ;
#165 = ORIENTED_EDGE ( 'NONE', *, *, #173, .F. ) ;
#166 = DIRECTION ( 'NONE',  ( 1.000000000000000000, 0.000000000000000000, 0.000000000000000000 ) ) ;
#167 = CARTESIAN_POINT ( 'NONE',  ( 0.000000000000000000, 0.000000000000000000, 128.0000000000000000 ) ) ;
#168 = AXIS2_PLACEMENT_3D ( 'NONE', #111, #86, #274 ) ;
#169 = CARTESIAN_POINT ( 'NONE',  ( 0.000000000000000000, 0.000000000000000000, 0.000000000000000000 ) ) ;
#170 = EDGE_LOOP ( 'NONE', ( #5, #134 ) ) ;
#171 =( LENGTH_UNIT ( ) NAMED_UNIT ( * ) SI_UNIT ( .MILLI., .METRE. ) );
#172 = ORIENTED_EDGE ( 'NONE', *, *, #248, .T. ) ;
#173 = EDGE_CURVE ( 'NONE', #300, #56, #193, .T. ) ;
#174 = TOROIDAL_SURFACE ( 'NONE', #187, 2.200000000000000178, 0.2000000000000000111 ) ;
#175 = PERSON_AND_ORGANIZATION_ROLE ( 'creator' ) ;
#176 = EDGE_CURVE ( 'NONE', #180, #155, #234, .T. ) ;
#177 = APPLICATION_CONTEXT ( 'configuration controlled 3d designs of mechanical parts and assemblies' ) ;
#178 = PLANE ( 'NONE',  #168 ) ;
#179 = CARTESIAN_POINT ( 'NONE',  ( 0.000000000000000000, 0.000000000000000000, 128.0000000000000000 ) ) ;
#180 = VERTEX_POINT ( 'NONE', #247 ) ;
#181 = ADVANCED_FACE ( 'NONE', ( #16 ), #12, .T. ) ;
#182 = CARTESIAN_POINT ( 'NONE',  ( 0.000000000000000000, 0.000000000000000000, 3.000000000000000000 ) ) ;
#183 = CIRCLE ( 'NONE', #44, 2.000000000000000000 ) ;
#184 = CARTESIAN_POINT ( 'NONE',  ( -2.000000000000000000, 0.000000000000000000, 3.199999999999994404 ) ) ;
#185 = EDGE_CURVE ( 'NONE', #106, #114, #2, .T. ) ;
#186 = LINE ( 'NONE', #37, #153 ) ;
#187 = AXIS2_PLACEMENT_3D ( 'NONE', #102, #296, #161 ) ;
#188 = ADVANCED_FACE ( 'NONE', ( #136 ), #174, .F. ) ;
#189 = COORDINATED_UNIVERSAL_TIME_OFFSET ( 1, 0, .AHEAD. ) ;
#190 = ORIENTED_EDGE ( 'NONE', *, *, #269, .T. ) ;
#191 = DIRECTION ( 'NONE',  ( 0.000000000000000000, 0.000000000000000000, 1.000000000000000000 ) ) ;
#192 = ORIENTED_EDGE ( 'NONE', *, *, #58, .F. ) ;
#193 = CIRCLE ( 'NONE', #60, 2.000000000000000000 ) ;
#194 = ORIENTED_EDGE ( 'NONE', *, *, #41, .F. ) ;
#195 = EDGE_CURVE ( 'NONE', #270, #106, #88, .T. ) ;
#196 = CARTESIAN_POINT ( 'NONE',  ( 0.000000000000000000, 0.000000000000000000, 3.199999999999994404 ) ) ;
#197 = ADVANCED_FACE ( 'NONE', ( #35 ), #178, .T. ) ;
#198 = ORIENTED_EDGE ( 'NONE', *, *, #18, .F. ) ;
#199 = SECURITY_CLASSIFICATION_LEVEL ( 'unclassified' ) ;
#200 = CC_DESIGN_PERSON_AND_ORGANIZATION_ASSIGNMENT ( #82, #78, ( #164 ) ) ;
#201 = DATE_AND_TIME ( #23, #242 ) ;
#202 = DIRECTION ( 'NONE',  ( 0.000000000000000000, 0.000000000000000000, 1.000000000000000000 ) ) ;
#203 = AXIS2_PLACEMENT_3D ( 'NONE', #288, #145, #213 ) ;
#204 = ADVANCED_FACE ( 'NONE', ( #272 ), #299, .T. ) ;
#205 = ORIENTED_EDGE ( 'NONE', *, *, #290, .F. ) ;
#206 = DIRECTION ( 'NONE',  ( 1.000000000000000000, 0.000000000000000000, 0.000000000000000000 ) ) ;
#207 = FACE_BOUND ( 'NONE', #297, .T. ) ;
#208 = EDGE_CURVE ( 'NONE', #114, #106, #17, .T. ) ;
#209 = CARTESIAN_POINT ( 'NONE',  ( -4.000000000000000000, 0.000000000000000000, 3.000000000000000000 ) ) ;
#210 = CC_DESIGN_DATE_AND_TIME_ASSIGNMENT ( #52, #281, ( #126 ) ) ;
#211 = FACE_OUTER_BOUND ( 'NONE', #119, .T. ) ;
#212 = DIRECTION ( 'NONE',  ( -1.000000000000000000, 0.000000000000000000, 0.000000000000000000 ) ) ;
#213 = DIRECTION ( 'NONE',  ( 1.000000000000000000, 0.000000000000000000, 0.000000000000000000 ) ) ;
#214 = FACE_OUTER_BOUND ( 'NONE', #22, .T. ) ;
#215 = CC_DESIGN_PERSON_AND_ORGANIZATION_ASSIGNMENT ( #289, #175, ( #126 ) ) ;
#216 = CIRCLE ( 'NONE', #110, 0.2000000000000000944 ) ;
#217 = PERSON_AND_ORGANIZATION ( #298, #280 ) ;
#218 = VERTEX_POINT ( 'NONE', #130 ) ;
#219 = CALENDAR_DATE ( 2022, 7, 7 ) ;
#220 = CARTESIAN_POINT ( 'NONE',  ( -2.200000000000000178, 2.694222958124177006E-16, 3.199999999999994404 ) ) ;
#221 = AXIS2_PLACEMENT_3D ( 'NONE', #196, #262, #73 ) ;
#222 = PERSON_AND_ORGANIZATION_ROLE ( 'classification_officer' ) ;
#223 = EDGE_LOOP ( 'NONE', ( #192, #194, #10, #91 ) ) ;
#224 = DATE_AND_TIME ( #152, #21 ) ;
#225 = CARTESIAN_POINT ( 'NONE',  ( 0.000000000000000000, 0.000000000000000000, 0.000000000000000000 ) ) ;
#226 = MANIFOLD_SOLID_BREP ( 'Zaoblit1', #147 ) ;
#227 = DIRECTION ( 'NONE',  ( -0.000000000000000000, -0.000000000000000000, -1.000000000000000000 ) ) ;
#228 = CIRCLE ( 'NONE', #203, 4.000000000000000000 ) ;
#229 = CC_DESIGN_APPROVAL ( #70, ( #126 ) ) ;
#230 = CARTESIAN_POINT ( 'NONE',  ( 4.000000000000000000, 4.898587196589412829E-16, 3.000000000000000000 ) ) ;
#231 = DIRECTION ( 'NONE',  ( 1.000000000000000000, 0.000000000000000000, 0.000000000000000000 ) ) ;
#232 = LINE ( 'NONE', #209, #244 ) ;
#233 = AXIS2_PLACEMENT_3D ( 'NONE', #254, #57, #59 ) ;
#234 = CIRCLE ( 'NONE', #277, 4.000000000000000000 ) ;
#235 = CARTESIAN_POINT ( 'NONE',  ( -2.000000000000000000, 0.000000000000000000, 128.0000000000000000 ) ) ;
#236 = CC_DESIGN_SECURITY_CLASSIFICATION ( #104, ( #164 ) ) ;
#237 = COORDINATED_UNIVERSAL_TIME_OFFSET ( 1, 0, .AHEAD. ) ;
#238 = CYLINDRICAL_SURFACE ( 'NONE', #137, 4.000000000000000000 ) ;
#239 = ORIENTED_EDGE ( 'NONE', *, *, #176, .T. ) ;
#240 = CARTESIAN_POINT ( 'NONE',  ( 2.000000000000000000, 2.449293598294706414E-16, 3.199999999999994404 ) ) ;
#241 = ORIENTED_EDGE ( 'NONE', *, *, #81, .T. ) ;
#242 = LOCAL_TIME ( 14, 51, 27.00000000000000000, #237 ) ;
#243 = CARTESIAN_POINT ( 'NONE',  ( 0.000000000000000000, 0.000000000000000000, 3.000000000000000000 ) ) ;
#244 = VECTOR ( 'NONE', #227, 1000.000000000000000 ) ;
#245 = EDGE_LOOP ( 'NONE', ( #165, #3, #31, #101 ) ) ;
#246 = PERSON_AND_ORGANIZATION ( #298, #280 ) ;
#247 = CARTESIAN_POINT ( 'NONE',  ( 4.000000000000000000, 4.898587196589412829E-16, 0.000000000000000000 ) ) ;
#248 = EDGE_CURVE ( 'NONE', #218, #155, #232, .T. ) ;
#249 = CARTESIAN_POINT ( 'NONE',  ( 0.000000000000000000, 0.000000000000000000, 3.000000000000000000 ) ) ;
#250 = COORDINATED_UNIVERSAL_TIME_OFFSET ( 1, 0, .AHEAD. ) ;
#251 = CARTESIAN_POINT ( 'NONE',  ( 2.200000000000000178, 0.000000000000000000, 2.999999999999997335 ) ) ;
#252 = ORIENTED_EDGE ( 'NONE', *, *, #248, .F. ) ;
#253 = FACE_OUTER_BOUND ( 'NONE', #76, .T. ) ;
#254 = CARTESIAN_POINT ( 'NONE',  ( 0.000000000000000000, 0.000000000000000000, 3.000000000000000000 ) ) ;
#255 =( GEOMETRIC_REPRESENTATION_CONTEXT ( 3 ) GLOBAL_UNCERTAINTY_ASSIGNED_CONTEXT ( ( #100 ) ) GLOBAL_UNIT_ASSIGNED_CONTEXT ( ( #171, #25, #71 ) ) REPRESENTATION_CONTEXT ( 'NONE', 'WORKASPACE' ) );
#256 = CC_DESIGN_APPROVAL ( #109, ( #104 ) ) ;
#257 = ORIENTED_EDGE ( 'NONE', *, *, #275, .F. ) ;
#258 = APPROVAL_STATUS ( 'not_yet_approved' ) ;
#259 = LINE ( 'NONE', #141, #13 ) ;
#260 = ADVANCED_FACE ( 'NONE', ( #14 ), #83, .T. ) ;
#261 = ORIENTED_EDGE ( 'NONE', *, *, #208, .T. ) ;
#262 = DIRECTION ( 'NONE',  ( 0.000000000000000000, 0.000000000000000000, 1.000000000000000000 ) ) ;
#263 = DIRECTION ( 'NONE',  ( 1.000000000000000000, 0.000000000000000000, -0.000000000000000000 ) ) ;
#264 = DIRECTION ( 'NONE',  ( 1.000000000000000000, 0.000000000000000000, 0.000000000000000000 ) ) ;
#265 = LOCAL_TIME ( 14, 51, 27.00000000000000000, #250 ) ;
#266 = CALENDAR_DATE ( 2022, 7, 7 ) ;
#267 = EDGE_CURVE ( 'NONE', #218, #64, #228, .T. ) ;
#268 = VECTOR ( 'NONE', #135, 1000.000000000000000 ) ;
#269 = EDGE_CURVE ( 'NONE', #84, #114, #216, .T. ) ;
#270 = VERTEX_POINT ( 'NONE', #240 ) ;
#271 = DATE_AND_TIME ( #150, #265 ) ;
#272 = FACE_OUTER_BOUND ( 'NONE', #46, .T. ) ;
#273 = ORIENTED_EDGE ( 'NONE', *, *, #176, .F. ) ;
#274 = DIRECTION ( 'NONE',  ( 1.000000000000000000, 0.000000000000000000, -0.000000000000000000 ) ) ;
#275 = EDGE_CURVE ( 'NONE', #64, #218, #51, .T. ) ;
#276 = CARTESIAN_POINT ( 'NONE',  ( 0.000000000000000000, 0.000000000000000000, 3.199999999999994404 ) ) ;
#277 = AXIS2_PLACEMENT_3D ( 'NONE', #225, #159, #206 ) ;
#278 = DIRECTION ( 'NONE',  ( 0.000000000000000000, -1.000000000000000000, 0.000000000000000000 ) ) ;
#279 = PLANE ( 'NONE',  #89 ) ;
#280 = ORGANIZATION ( 'NEURÈENÝ', 'NEURÈENÝ', '' ) ;
#281 = DATE_TIME_ROLE ( 'creation_date' ) ;
#282 = ORIENTED_EDGE ( 'NONE', *, *, #185, .F. ) ;
#283 = AXIS2_PLACEMENT_3D ( 'NONE', #243, #7, #264 ) ;
#284 = ORIENTED_EDGE ( 'NONE', *, *, #18, .T. ) ;
#285 = CC_DESIGN_PERSON_AND_ORGANIZATION_ASSIGNMENT ( #246, #222, ( #104 ) ) ;
#286 = DIRECTION ( 'NONE',  ( -1.000000000000000000, 1.224646799147353207E-16, 0.000000000000000000 ) ) ;
#287 = CARTESIAN_POINT ( 'NONE',  ( 0.000000000000000000, 0.000000000000000000, 0.000000000000000000 ) ) ;
#288 = CARTESIAN_POINT ( 'NONE',  ( 0.000000000000000000, 0.000000000000000000, 3.000000000000000000 ) ) ;
#289 = PERSON_AND_ORGANIZATION ( #298, #280 ) ;
#290 = EDGE_CURVE ( 'NONE', #270, #84, #183, .T. ) ;
#291 = AXIS2_PLACEMENT_3D ( 'NONE', #63, #87, #162 ) ;
#292 = EDGE_LOOP ( 'NONE', ( #69, #190, #282, #144 ) ) ;
#293 = COORDINATED_UNIVERSAL_TIME_OFFSET ( 1, 0, .AHEAD. ) ;
#294 = APPROVAL_DATE_TIME ( #201, #163 ) ;
#295 = APPROVAL_PERSON_ORGANIZATION ( #148, #70, #95 ) ;
#296 = DIRECTION ( 'NONE',  ( 0.000000000000000000, 0.000000000000000000, 1.000000000000000000 ) ) ;
#297 = EDGE_LOOP ( 'NONE', ( #26, #261 ) ) ;
#298 = PERSON ( 'NEURÈENÝ', 'NEURÈENÝ', 'NEURÈENÝ', ('NEURÈENÝ'), ('NEURÈENÝ'), ('NEURÈENÝ') ) ;
#299 = CYLINDRICAL_SURFACE ( 'NONE', #291, 4.000000000000000000 ) ;
#300 = VERTEX_POINT ( 'NONE', #115 ) ;
#301 = DIRECTION ( 'NONE',  ( -1.000000000000000000, 0.000000000000000000, 0.000000000000000000 ) ) ;
#302 = DIRECTION ( 'NONE',  ( 0.000000000000000000, 0.000000000000000000, -1.000000000000000000 ) ) ;
#303 = AXIS2_PLACEMENT_3D ( 'NONE', #179, #118, #30 ) ;
#304 = CARTESIAN_POINT ( 'NONE',  ( 2.200000000000000178, 0.000000000000000000, 3.199999999999994404 ) ) ;
#305 = EDGE_CURVE ( 'NONE', #84, #270, #93, .T. ) ;
#306 = ORIENTED_EDGE ( 'NONE', *, *, #195, .T. ) ;
#307 = CARTESIAN_POINT ( 'NONE',  ( 4.000000000000000000, 4.898587196589412829E-16, 3.000000000000000000 ) ) ;
ENDSEC;
END-ISO-10303-21;
