ISO-10303-21;
HEADER;
FILE_DESCRIPTION (( 'STEP AP203' ),
    '1' );
FILE_NAME ('e14c.STEP',
    '2022-07-07T12:27:29',
    ( '' ),
    ( '' ),
    'SwSTEP 2.0',
    'SolidWorks 2019',
    '' );
FILE_SCHEMA (( 'CONFIG_CONTROL_DESIGN' ));
ENDSEC;

DATA;
#1 = DIRECTION ( 'NONE',  ( 1.000000000000000000, 0.000000000000000000, -0.000000000000000000 ) ) ;
#2 = AXIS2_PLACEMENT_3D ( 'NONE', #206, #253, #178 ) ;
#3 = CALENDAR_DATE ( 2022, 7, 7 ) ;
#4 = ADVANCED_FACE ( 'NONE', ( #193 ), #120, .T. ) ;
#5 = APPLICATION_CONTEXT ( 'configuration controlled 3d designs of mechanical parts and assemblies' ) ;
#6 = APPROVAL_STATUS ( 'not_yet_approved' ) ;
#7 = CARTESIAN_POINT ( 'NONE',  ( 5.000000000000000000, 6.123233995736766282E-16, 505.0000000000000000 ) ) ;
#8 = EDGE_CURVE ( 'NONE', #29, #144, #137, .T. ) ;
#9 = ORIENTED_EDGE ( 'NONE', *, *, #229, .F. ) ;
#10 = ORIENTED_EDGE ( 'NONE', *, *, #229, .T. ) ;
#11 = AXIS2_PLACEMENT_3D ( 'NONE', #81, #295, #78 ) ;
#12 = CC_DESIGN_DATE_AND_TIME_ASSIGNMENT ( #90, #181, ( #75 ) ) ;
#13 = ORIENTED_EDGE ( 'NONE', *, *, #185, .T. ) ;
#14 = CALENDAR_DATE ( 2022, 7, 7 ) ;
#15 = ORIENTED_EDGE ( 'NONE', *, *, #8, .T. ) ;
#16 = ADVANCED_FACE ( 'NONE', ( #194, #296 ), #97, .T. ) ;
#17 = EDGE_LOOP ( 'NONE', ( #291, #100 ) ) ;
#18 = DATE_AND_TIME ( #174, #70 ) ;
#19 = DIRECTION ( 'NONE',  ( 1.000000000000000000, 0.000000000000000000, 0.000000000000000000 ) ) ;
#20 = DIRECTION ( 'NONE',  ( 1.000000000000000000, 0.000000000000000000, 0.000000000000000000 ) ) ;
#21 = AXIS2_PLACEMENT_3D ( 'NONE', #128, #303, #88 ) ;
#22 = DIRECTION ( 'NONE',  ( 0.000000000000000000, 0.000000000000000000, 1.000000000000000000 ) ) ;
#23 = DIRECTION ( 'NONE',  ( 0.000000000000000000, 0.000000000000000000, 1.000000000000000000 ) ) ;
#24 = LINE ( 'NONE', #125, #123 ) ;
#25 = APPROVAL ( #115, 'NEURÈENÝ' ) ;
#26 = CIRCLE ( 'NONE', #56, 5.000000000000000000 ) ;
#27 = PERSON_AND_ORGANIZATION ( #32, #186 ) ;
#28 = CC_DESIGN_APPROVAL ( #221, ( #214 ) ) ;
#29 = VERTEX_POINT ( 'NONE', #170 ) ;
#30 = VERTEX_POINT ( 'NONE', #270 ) ;
#31 = ORIENTED_EDGE ( 'NONE', *, *, #207, .T. ) ;
#32 = PERSON ( 'NEURÈENÝ', 'NEURÈENÝ', 'NEURÈENÝ', ('NEURÈENÝ'), ('NEURÈENÝ'), ('NEURÈENÝ') ) ;
#33 = ORIENTED_EDGE ( 'NONE', *, *, #213, .T. ) ;
#34 = EDGE_CURVE ( 'NONE', #77, #294, #126, .T. ) ;
#35 = ORIENTED_EDGE ( 'NONE', *, *, #195, .T. ) ;
#36 = AXIS2_PLACEMENT_3D ( 'NONE', #101, #230, #302 ) ;
#37 = CARTESIAN_POINT ( 'NONE',  ( 0.000000000000000000, 0.000000000000000000, 5.000000000000000000 ) ) ;
#38 = DIRECTION ( 'NONE',  ( -0.000000000000000000, -0.000000000000000000, -1.000000000000000000 ) ) ;
#39 = FACE_OUTER_BOUND ( 'NONE', #121, .T. ) ;
#40 = CARTESIAN_POINT ( 'NONE',  ( -8.000000000000000000, 0.000000000000000000, 5.000000000000000000 ) ) ;
#41 = CARTESIAN_POINT ( 'NONE',  ( 0.000000000000000000, 0.000000000000000000, 505.0000000000000000 ) ) ;
#42 = DIRECTION ( 'NONE',  ( -0.000000000000000000, -0.000000000000000000, -1.000000000000000000 ) ) ;
#43 = AXIS2_PLACEMENT_3D ( 'NONE', #281, #110, #1 ) ;
#44 = DIRECTION ( 'NONE',  ( 0.000000000000000000, 0.000000000000000000, 1.000000000000000000 ) ) ;
#45 = COORDINATED_UNIVERSAL_TIME_OFFSET ( 1, 0, .AHEAD. ) ;
#46 = ORIENTED_EDGE ( 'NONE', *, *, #129, .T. ) ;
#47 = EDGE_CURVE ( 'NONE', #167, #77, #172, .T. ) ;
#48 = EDGE_LOOP ( 'NONE', ( #31, #135 ) ) ;
#49 = ORIENTED_EDGE ( 'NONE', *, *, #8, .F. ) ;
#50 = CC_DESIGN_APPROVAL ( #25, ( #199 ) ) ;
#51 = CARTESIAN_POINT ( 'NONE',  ( 0.000000000000000000, 0.000000000000000000, 0.000000000000000000 ) ) ;
#52 = ADVANCED_FACE ( 'NONE', ( #107 ), #204, .T. ) ;
#53 = PERSON_AND_ORGANIZATION_ROLE ( 'creator' ) ;
#54 = ORIENTED_EDGE ( 'NONE', *, *, #47, .T. ) ;
#55 = CARTESIAN_POINT ( 'NONE',  ( 0.000000000000000000, 0.000000000000000000, 0.000000000000000000 ) ) ;
#56 = AXIS2_PLACEMENT_3D ( 'NONE', #159, #72, #180 ) ;
#57 = APPROVAL_DATE_TIME ( #18, #221 ) ;
#58 = CARTESIAN_POINT ( 'NONE',  ( -5.200000000000000178, 6.368163355566236381E-16, 5.199999999999982414 ) ) ;
#59 = TOROIDAL_SURFACE ( 'NONE', #239, 5.200000000000000178, 0.2000000000000000111 ) ;
#60 = DIRECTION ( 'NONE',  ( 1.000000000000000000, 0.000000000000000000, 0.000000000000000000 ) ) ;
#61 = SHAPE_DEFINITION_REPRESENTATION ( #248, #138 ) ;
#62 = CARTESIAN_POINT ( 'NONE',  ( 0.000000000000000000, 0.000000000000000000, 505.0000000000000000 ) ) ;
#63 = DIRECTION ( 'NONE',  ( 0.000000000000000000, 0.000000000000000000, 1.000000000000000000 ) ) ;
#64 = ADVANCED_FACE ( 'NONE', ( #307 ), #304, .F. ) ;
#65 = CARTESIAN_POINT ( 'NONE',  ( 0.000000000000000000, 0.000000000000000000, 0.000000000000000000 ) ) ;
#66 = FACE_OUTER_BOUND ( 'NONE', #282, .T. ) ;
#67 = APPROVAL_PERSON_ORGANIZATION ( #232, #221, #227 ) ;
#68 = FACE_OUTER_BOUND ( 'NONE', #220, .T. ) ;
#69 = AXIS2_PLACEMENT_3D ( 'NONE', #58, #202, #147 ) ;
#70 = LOCAL_TIME ( 14, 27, 29.00000000000000000, #124 ) ;
#71 = VECTOR ( 'NONE', #149, 1000.000000000000000 ) ;
#72 = DIRECTION ( 'NONE',  ( 0.000000000000000000, 0.000000000000000000, 1.000000000000000000 ) ) ;
#73 = PERSON_AND_ORGANIZATION_ROLE ( 'creator' ) ;
#74 = EDGE_LOOP ( 'NONE', ( #197, #191, #268, #49 ) ) ;
#75 = PRODUCT_DEFINITION ( 'NEZNÁMÝ', '', #199, #218 ) ;
#76 = AXIS2_PLACEMENT_3D ( 'NONE', #257, #306, #133 ) ;
#77 = VERTEX_POINT ( 'NONE', #272 ) ;
#78 = DIRECTION ( 'NONE',  ( 1.000000000000000000, 0.000000000000000000, -0.000000000000000000 ) ) ;
#79 = ADVANCED_FACE ( 'NONE', ( #278 ), #179, .F. ) ;
#80 = APPROVAL_ROLE ( '' ) ;
#81 = CARTESIAN_POINT ( 'NONE',  ( 0.000000000000000000, 0.000000000000000000, 5.000000000000000000 ) ) ;
#82 = LOCAL_TIME ( 14, 27, 29.00000000000000000, #131 ) ;
#83 = ORIENTED_EDGE ( 'NONE', *, *, #136, .F. ) ;
#84 = DIRECTION ( 'NONE',  ( 0.000000000000000000, -1.000000000000000000, 0.000000000000000000 ) ) ;
#85 = CARTESIAN_POINT ( 'NONE',  ( 0.000000000000000000, 0.000000000000000000, 5.000000000000000000 ) ) ;
#86 = DIRECTION ( 'NONE',  ( -1.000000000000000000, 0.000000000000000000, 0.000000000000000000 ) ) ;
#87 = ADVANCED_FACE ( 'NONE', ( #226 ), #203, .T. ) ;
#88 = DIRECTION ( 'NONE',  ( 1.000000000000000000, 0.000000000000000000, 0.000000000000000000 ) ) ;
#89 = CIRCLE ( 'NONE', #103, 5.200000000000000178 ) ;
#90 = DATE_AND_TIME ( #3, #140 ) ;
#91 = PLANE ( 'NONE',  #43 ) ;
#92 = CIRCLE ( 'NONE', #293, 0.1999999999999996503 ) ;
#93 = DIRECTION ( 'NONE',  ( 1.000000000000000000, 0.000000000000000000, 0.000000000000000000 ) ) ;
#94 = PERSON_AND_ORGANIZATION ( #32, #186 ) ;
#95 = PERSON_AND_ORGANIZATION_ROLE ( 'design_supplier' ) ;
#96 = ORIENTED_EDGE ( 'NONE', *, *, #146, .F. ) ;
#97 = PLANE ( 'NONE',  #11 ) ;
#98 = VERTEX_POINT ( 'NONE', #274 ) ;
#99 = EDGE_LOOP ( 'NONE', ( #217, #122, #96, #145 ) ) ;
#100 = ORIENTED_EDGE ( 'NONE', *, *, #166, .T. ) ;
#101 = CARTESIAN_POINT ( 'NONE',  ( 0.000000000000000000, 0.000000000000000000, 5.000000000000000000 ) ) ;
#102 = CARTESIAN_POINT ( 'NONE',  ( 5.000000000000000000, 6.123233995736766282E-16, 505.0000000000000000 ) ) ;
#103 = AXIS2_PLACEMENT_3D ( 'NONE', #37, #235, #19 ) ;
#104 =( GEOMETRIC_REPRESENTATION_CONTEXT ( 3 ) GLOBAL_UNCERTAINTY_ASSIGNED_CONTEXT ( ( #184 ) ) GLOBAL_UNIT_ASSIGNED_CONTEXT ( ( #259, #208, #209 ) ) REPRESENTATION_CONTEXT ( 'NONE', 'WORKASPACE' ) );
#105 = DIRECTION ( 'NONE',  ( 0.000000000000000000, 0.000000000000000000, -1.000000000000000000 ) ) ;
#106 = DATE_AND_TIME ( #300, #82 ) ;
#107 = FACE_OUTER_BOUND ( 'NONE', #243, .T. ) ;
#108 = DIRECTION ( 'NONE',  ( 0.000000000000000000, 0.000000000000000000, 1.000000000000000000 ) ) ;
#109 = CIRCLE ( 'NONE', #2, 5.200000000000000178 ) ;
#110 = DIRECTION ( 'NONE',  ( 0.000000000000000000, 0.000000000000000000, 1.000000000000000000 ) ) ;
#111 = DIRECTION ( 'NONE',  ( -0.000000000000000000, -0.000000000000000000, -1.000000000000000000 ) ) ;
#112 = CC_DESIGN_PERSON_AND_ORGANIZATION_ASSIGNMENT ( #27, #73, ( #75 ) ) ;
#113 = APPROVAL_ROLE ( '' ) ;
#114 = ADVANCED_FACE ( 'NONE', ( #39 ), #59, .F. ) ;
#115 = APPROVAL_STATUS ( 'not_yet_approved' ) ;
#116 = DIRECTION ( 'NONE',  ( -0.000000000000000000, -0.000000000000000000, -1.000000000000000000 ) ) ;
#117 = PERSON_AND_ORGANIZATION_ROLE ( 'classification_officer' ) ;
#118 = DIRECTION ( 'NONE',  ( -1.000000000000000000, 0.000000000000000000, 0.000000000000000000 ) ) ;
#119 = AXIS2_PLACEMENT_3D ( 'NONE', #85, #38, #233 ) ;
#120 = CYLINDRICAL_SURFACE ( 'NONE', #200, 5.000000000000000000 ) ;
#121 = EDGE_LOOP ( 'NONE', ( #249, #241, #33, #262 ) ) ;
#122 = ORIENTED_EDGE ( 'NONE', *, *, #156, .T. ) ;
#123 = VECTOR ( 'NONE', #201, 1000.000000000000000 ) ;
#124 = COORDINATED_UNIVERSAL_TIME_OFFSET ( 1, 0, .AHEAD. ) ;
#125 = CARTESIAN_POINT ( 'NONE',  ( 8.000000000000000000, 9.797174393178825657E-16, 5.000000000000000000 ) ) ;
#126 = CIRCLE ( 'NONE', #150, 8.000000000000000000 ) ;
#127 = CARTESIAN_POINT ( 'NONE',  ( 0.000000000000000000, 0.000000000000000000, 5.199999999999982414 ) ) ;
#128 = CARTESIAN_POINT ( 'NONE',  ( 0.000000000000000000, 0.000000000000000000, 5.199999999999982414 ) ) ;
#129 = EDGE_CURVE ( 'NONE', #142, #29, #175, .T. ) ;
#130 = CIRCLE ( 'NONE', #148, 5.000000000000000000 ) ;
#131 = COORDINATED_UNIVERSAL_TIME_OFFSET ( 1, 0, .AHEAD. ) ;
#132 = DIRECTION ( 'NONE',  ( 1.000000000000000000, 0.000000000000000000, 0.000000000000000000 ) ) ;
#133 = DIRECTION ( 'NONE',  ( 1.000000000000000000, 0.000000000000000000, -0.000000000000000000 ) ) ;
#134 = CARTESIAN_POINT ( 'NONE',  ( 8.000000000000000000, 9.797174393178825657E-16, 0.000000000000000000 ) ) ;
#135 = ORIENTED_EDGE ( 'NONE', *, *, #283, .T. ) ;
#136 = EDGE_CURVE ( 'NONE', #294, #77, #143, .T. ) ;
#137 = LINE ( 'NONE', #219, #225 ) ;
#138 = ADVANCED_BREP_SHAPE_REPRESENTATION ( 'e14c', ( #265, #231 ), #104 ) ;
#139 = VERTEX_POINT ( 'NONE', #251 ) ;
#140 = LOCAL_TIME ( 14, 27, 29.00000000000000000, #45 ) ;
#141 = CC_DESIGN_PERSON_AND_ORGANIZATION_ASSIGNMENT ( #94, #95, ( #199 ) ) ;
#142 = VERTEX_POINT ( 'NONE', #102 ) ;
#143 = CIRCLE ( 'NONE', #198, 8.000000000000000000 ) ;
#144 = VERTEX_POINT ( 'NONE', #151 ) ;
#145 = ORIENTED_EDGE ( 'NONE', *, *, #213, .F. ) ;
#146 = EDGE_CURVE ( 'NONE', #222, #98, #109, .T. ) ;
#147 = DIRECTION ( 'NONE',  ( -1.000000000000000000, 1.224646799147353454E-16, 0.000000000000000000 ) ) ;
#148 = AXIS2_PLACEMENT_3D ( 'NONE', #160, #108, #155 ) ;
#149 = DIRECTION ( 'NONE',  ( -0.000000000000000000, -0.000000000000000000, -1.000000000000000000 ) ) ;
#150 = AXIS2_PLACEMENT_3D ( 'NONE', #51, #301, #152 ) ;
#151 = CARTESIAN_POINT ( 'NONE',  ( -5.000000000000000000, 0.000000000000000000, 5.199999999999982414 ) ) ;
#152 = DIRECTION ( 'NONE',  ( 1.000000000000000000, 0.000000000000000000, 0.000000000000000000 ) ) ;
#153 = LOCAL_TIME ( 14, 27, 29.00000000000000000, #187 ) ;
#154 = DIRECTION ( 'NONE',  ( 1.000000000000000000, 0.000000000000000000, 0.000000000000000000 ) ) ;
#155 = DIRECTION ( 'NONE',  ( 1.000000000000000000, 0.000000000000000000, 0.000000000000000000 ) ) ;
#156 = EDGE_CURVE ( 'NONE', #144, #98, #224, .T. ) ;
#157 = PERSON_AND_ORGANIZATION ( #32, #186 ) ;
#158 = APPROVAL_PERSON_ORGANIZATION ( #157, #177, #113 ) ;
#159 = CARTESIAN_POINT ( 'NONE',  ( 0.000000000000000000, 0.000000000000000000, 5.199999999999982414 ) ) ;
#160 = CARTESIAN_POINT ( 'NONE',  ( 0.000000000000000000, 0.000000000000000000, 505.0000000000000000 ) ) ;
#161 = CARTESIAN_POINT ( 'NONE',  ( 0.000000000000000000, 0.000000000000000000, 5.000000000000000000 ) ) ;
#162 = CIRCLE ( 'NONE', #36, 8.000000000000000000 ) ;
#163 = CARTESIAN_POINT ( 'NONE',  ( 0.000000000000000000, 0.000000000000000000, 505.0000000000000000 ) ) ;
#164 = SECURITY_CLASSIFICATION_LEVEL ( 'unclassified' ) ;
#165 = ORIENTED_EDGE ( 'NONE', *, *, #195, .F. ) ;
#166 = EDGE_CURVE ( 'NONE', #98, #222, #89, .T. ) ;
#167 = VERTEX_POINT ( 'NONE', #40 ) ;
#168 = AXIS2_PLACEMENT_3D ( 'NONE', #161, #44, #93 ) ;
#169 = COORDINATED_UNIVERSAL_TIME_OFFSET ( 1, 0, .AHEAD. ) ;
#170 = CARTESIAN_POINT ( 'NONE',  ( -5.000000000000000000, 0.000000000000000000, 505.0000000000000000 ) ) ;
#171 = ORIENTED_EDGE ( 'NONE', *, *, #34, .T. ) ;
#172 = LINE ( 'NONE', #176, #71 ) ;
#173 = CARTESIAN_POINT ( 'NONE',  ( 5.200000000000000178, 0.000000000000000000, 4.999999999999991118 ) ) ;
#174 = CALENDAR_DATE ( 2022, 7, 7 ) ;
#175 = CIRCLE ( 'NONE', #288, 5.000000000000000000 ) ;
#176 = CARTESIAN_POINT ( 'NONE',  ( -8.000000000000000000, 0.000000000000000000, 5.000000000000000000 ) ) ;
#177 = APPROVAL ( #6, 'NEURÈENÝ' ) ;
#178 = DIRECTION ( 'NONE',  ( 1.000000000000000000, 0.000000000000000000, 0.000000000000000000 ) ) ;
#179 = PLANE ( 'NONE',  #76 ) ;
#180 = DIRECTION ( 'NONE',  ( 1.000000000000000000, 0.000000000000000000, 0.000000000000000000 ) ) ;
#181 = DATE_TIME_ROLE ( 'creation_date' ) ;
#182 = ORIENTED_EDGE ( 'NONE', *, *, #136, .T. ) ;
#183 = DATE_AND_TIME ( #188, #153 ) ;
#184 = UNCERTAINTY_MEASURE_WITH_UNIT (LENGTH_MEASURE( 1.000000000000000082E-05 ), #259, 'distance_accuracy_value', 'NONE');
#185 = EDGE_CURVE ( 'NONE', #144, #139, #286, .T. ) ;
#186 = ORGANIZATION ( 'NEURÈENÝ', 'NEURÈENÝ', '' ) ;
#187 = COORDINATED_UNIVERSAL_TIME_OFFSET ( 1, 0, .AHEAD. ) ;
#188 = CALENDAR_DATE ( 2022, 7, 7 ) ;
#189 = AXIS2_PLACEMENT_3D ( 'NONE', #284, #111, #287 ) ;
#190 = APPROVAL_PERSON_ORGANIZATION ( #238, #25, #80 ) ;
#191 = ORIENTED_EDGE ( 'NONE', *, *, #247, .T. ) ;
#192 = AXIS2_PLACEMENT_3D ( 'NONE', #62, #276, #86 ) ;
#193 = FACE_OUTER_BOUND ( 'NONE', #299, .T. ) ;
#194 = FACE_BOUND ( 'NONE', #17, .T. ) ;
#195 = EDGE_CURVE ( 'NONE', #30, #294, #24, .T. ) ;
#196 = PERSON_AND_ORGANIZATION ( #32, #186 ) ;
#197 = ORIENTED_EDGE ( 'NONE', *, *, #129, .F. ) ;
#198 = AXIS2_PLACEMENT_3D ( 'NONE', #55, #255, #20 ) ;
#199 = PRODUCT_DEFINITION_FORMATION_WITH_SPECIFIED_SOURCE ( 'LIBOVOLNÝ', '', #297, .NOT_KNOWN. ) ;
#200 = AXIS2_PLACEMENT_3D ( 'NONE', #163, #266, #118 ) ;
#201 = DIRECTION ( 'NONE',  ( -0.000000000000000000, -0.000000000000000000, -1.000000000000000000 ) ) ;
#202 = DIRECTION ( 'NONE',  ( 1.224646799147353207E-16, 1.000000000000000000, -0.000000000000000000 ) ) ;
#203 = CYLINDRICAL_SURFACE ( 'NONE', #192, 5.000000000000000000 ) ;
#204 = CYLINDRICAL_SURFACE ( 'NONE', #119, 8.000000000000000000 ) ;
#205 = APPROVAL_STATUS ( 'not_yet_approved' ) ;
#206 = CARTESIAN_POINT ( 'NONE',  ( 0.000000000000000000, 0.000000000000000000, 5.000000000000000000 ) ) ;
#207 = EDGE_CURVE ( 'NONE', #167, #30, #162, .T. ) ;
#208 =( NAMED_UNIT ( * ) PLANE_ANGLE_UNIT ( ) SI_UNIT ( $, .RADIAN. ) );
#209 =( NAMED_UNIT ( * ) SI_UNIT ( $, .STERADIAN. ) SOLID_ANGLE_UNIT ( ) );
#210 = AXIS2_PLACEMENT_3D ( 'NONE', #228, #23, #154 ) ;
#211 = PERSON_AND_ORGANIZATION ( #32, #186 ) ;
#212 = APPROVAL_DATE_TIME ( #183, #177 ) ;
#213 = EDGE_CURVE ( 'NONE', #139, #222, #92, .T. ) ;
#214 = SECURITY_CLASSIFICATION ( '', '', #164 ) ;
#215 = APPROVAL_DATE_TIME ( #244, #25 ) ;
#216 = CC_DESIGN_DATE_AND_TIME_ASSIGNMENT ( #106, #277, ( #214 ) ) ;
#217 = ORIENTED_EDGE ( 'NONE', *, *, #185, .F. ) ;
#218 = DESIGN_CONTEXT ( 'detailed design', #279, 'design' ) ;
#219 = CARTESIAN_POINT ( 'NONE',  ( -5.000000000000000000, 0.000000000000000000, 505.0000000000000000 ) ) ;
#220 = EDGE_LOOP ( 'NONE', ( #223, #35, #182, #250 ) ) ;
#221 = APPROVAL ( #205, 'NEURÈENÝ' ) ;
#222 = VERTEX_POINT ( 'NONE', #173 ) ;
#223 = ORIENTED_EDGE ( 'NONE', *, *, #283, .F. ) ;
#224 = CIRCLE ( 'NONE', #69, 0.1999999999999996503 ) ;
#225 = VECTOR ( 'NONE', #116, 1000.000000000000000 ) ;
#226 = FACE_OUTER_BOUND ( 'NONE', #74, .T. ) ;
#227 = APPROVAL_ROLE ( '' ) ;
#228 = CARTESIAN_POINT ( 'NONE',  ( 0.000000000000000000, 0.000000000000000000, 5.199999999999982414 ) ) ;
#229 = EDGE_CURVE ( 'NONE', #29, #142, #130, .T. ) ;
#230 = DIRECTION ( 'NONE',  ( 0.000000000000000000, 0.000000000000000000, 1.000000000000000000 ) ) ;
#231 = AXIS2_PLACEMENT_3D ( 'NONE', #65, #264, #289 ) ;
#232 = PERSON_AND_ORGANIZATION ( #32, #186 ) ;
#233 = DIRECTION ( 'NONE',  ( -1.000000000000000000, 0.000000000000000000, 0.000000000000000000 ) ) ;
#234 = CC_DESIGN_PERSON_AND_ORGANIZATION_ASSIGNMENT ( #267, #117, ( #214 ) ) ;
#235 = DIRECTION ( 'NONE',  ( -0.000000000000000000, -0.000000000000000000, -1.000000000000000000 ) ) ;
#236 = APPLICATION_PROTOCOL_DEFINITION ( 'international standard', 'config_control_design', 1994, #279 ) ;
#237 = CIRCLE ( 'NONE', #168, 8.000000000000000000 ) ;
#238 = PERSON_AND_ORGANIZATION ( #32, #186 ) ;
#239 = AXIS2_PLACEMENT_3D ( 'NONE', #127, #22, #132 ) ;
#240 = MECHANICAL_CONTEXT ( 'NONE', #5, 'mechanical' ) ;
#241 = ORIENTED_EDGE ( 'NONE', *, *, #275, .F. ) ;
#242 = PRODUCT_RELATED_PRODUCT_CATEGORY ( 'detail', '', ( #297 ) ) ;
#243 = EDGE_LOOP ( 'NONE', ( #165, #245, #54, #171 ) ) ;
#244 = DATE_AND_TIME ( #14, #285 ) ;
#245 = ORIENTED_EDGE ( 'NONE', *, *, #207, .F. ) ;
#246 = EDGE_LOOP ( 'NONE', ( #271, #83 ) ) ;
#247 = EDGE_CURVE ( 'NONE', #142, #139, #263, .T. ) ;
#248 = PRODUCT_DEFINITION_SHAPE ( 'NONE', 'NONE',  #75 ) ;
#249 = ORIENTED_EDGE ( 'NONE', *, *, #156, .F. ) ;
#250 = ORIENTED_EDGE ( 'NONE', *, *, #47, .F. ) ;
#251 = CARTESIAN_POINT ( 'NONE',  ( 5.000000000000000000, 6.123233995736766282E-16, 5.199999999999982414 ) ) ;
#252 = CARTESIAN_POINT ( 'NONE',  ( 5.200000000000000178, 0.000000000000000000, 5.199999999999982414 ) ) ;
#253 = DIRECTION ( 'NONE',  ( -0.000000000000000000, -0.000000000000000000, -1.000000000000000000 ) ) ;
#254 = CC_DESIGN_SECURITY_CLASSIFICATION ( #214, ( #199 ) ) ;
#255 = DIRECTION ( 'NONE',  ( 0.000000000000000000, 0.000000000000000000, 1.000000000000000000 ) ) ;
#256 = ADVANCED_FACE ( 'NONE', ( #68 ), #258, .T. ) ;
#257 = CARTESIAN_POINT ( 'NONE',  ( 0.000000000000000000, 0.000000000000000000, 0.000000000000000000 ) ) ;
#258 = CYLINDRICAL_SURFACE ( 'NONE', #189, 8.000000000000000000 ) ;
#259 =( LENGTH_UNIT ( ) NAMED_UNIT ( * ) SI_UNIT ( .MILLI., .METRE. ) );
#260 = APPLICATION_PROTOCOL_DEFINITION ( 'international standard', 'config_control_design', 1994, #5 ) ;
#261 = CLOSED_SHELL ( 'NONE', ( #64, #87, #256, #52, #16, #79, #4, #305, #114 ) ) ;
#262 = ORIENTED_EDGE ( 'NONE', *, *, #166, .F. ) ;
#263 = LINE ( 'NONE', #7, #292 ) ;
#264 = DIRECTION ( 'NONE',  ( 0.000000000000000000, 0.000000000000000000, 1.000000000000000000 ) ) ;
#265 = MANIFOLD_SOLID_BREP ( 'Zaoblit1', #261 ) ;
#266 = DIRECTION ( 'NONE',  ( -0.000000000000000000, -0.000000000000000000, -1.000000000000000000 ) ) ;
#267 = PERSON_AND_ORGANIZATION ( #32, #186 ) ;
#268 = ORIENTED_EDGE ( 'NONE', *, *, #275, .T. ) ;
#269 = ORIENTED_EDGE ( 'NONE', *, *, #247, .F. ) ;
#270 = CARTESIAN_POINT ( 'NONE',  ( 8.000000000000000000, 9.797174393178825657E-16, 5.000000000000000000 ) ) ;
#271 = ORIENTED_EDGE ( 'NONE', *, *, #34, .F. ) ;
#272 = CARTESIAN_POINT ( 'NONE',  ( -8.000000000000000000, 0.000000000000000000, 0.000000000000000000 ) ) ;
#273 = CC_DESIGN_PERSON_AND_ORGANIZATION_ASSIGNMENT ( #196, #53, ( #199 ) ) ;
#274 = CARTESIAN_POINT ( 'NONE',  ( -5.200000000000000178, 6.368163355566236381E-16, 4.999999999999991118 ) ) ;
#275 = EDGE_CURVE ( 'NONE', #139, #144, #26, .T. ) ;
#276 = DIRECTION ( 'NONE',  ( -0.000000000000000000, -0.000000000000000000, -1.000000000000000000 ) ) ;
#277 = DATE_TIME_ROLE ( 'classification_date' ) ;
#278 = FACE_OUTER_BOUND ( 'NONE', #246, .T. ) ;
#279 = APPLICATION_CONTEXT ( 'configuration controlled 3d designs of mechanical parts and assemblies' ) ;
#280 = PERSON_AND_ORGANIZATION_ROLE ( 'design_owner' ) ;
#281 = CARTESIAN_POINT ( 'NONE',  ( 0.000000000000000000, 0.000000000000000000, 505.0000000000000000 ) ) ;
#282 = EDGE_LOOP ( 'NONE', ( #10, #46 ) ) ;
#283 = EDGE_CURVE ( 'NONE', #30, #167, #237, .T. ) ;
#284 = CARTESIAN_POINT ( 'NONE',  ( 0.000000000000000000, 0.000000000000000000, 5.000000000000000000 ) ) ;
#285 = LOCAL_TIME ( 14, 27, 29.00000000000000000, #169 ) ;
#286 = CIRCLE ( 'NONE', #21, 5.000000000000000000 ) ;
#287 = DIRECTION ( 'NONE',  ( -1.000000000000000000, 0.000000000000000000, 0.000000000000000000 ) ) ;
#288 = AXIS2_PLACEMENT_3D ( 'NONE', #41, #63, #60 ) ;
#289 = DIRECTION ( 'NONE',  ( 1.000000000000000000, 0.000000000000000000, 0.000000000000000000 ) ) ;
#290 = CC_DESIGN_PERSON_AND_ORGANIZATION_ASSIGNMENT ( #211, #280, ( #297 ) ) ;
#291 = ORIENTED_EDGE ( 'NONE', *, *, #146, .T. ) ;
#292 = VECTOR ( 'NONE', #42, 1000.000000000000000 ) ;
#293 = AXIS2_PLACEMENT_3D ( 'NONE', #252, #84, #105 ) ;
#294 = VERTEX_POINT ( 'NONE', #134 ) ;
#295 = DIRECTION ( 'NONE',  ( 0.000000000000000000, 0.000000000000000000, 1.000000000000000000 ) ) ;
#296 = FACE_OUTER_BOUND ( 'NONE', #48, .T. ) ;
#297 = PRODUCT ( 'e14c', 'e14c', '', ( #240 ) ) ;
#298 = CC_DESIGN_APPROVAL ( #177, ( #75 ) ) ;
#299 = EDGE_LOOP ( 'NONE', ( #269, #9, #15, #13 ) ) ;
#300 = CALENDAR_DATE ( 2022, 7, 7 ) ;
#301 = DIRECTION ( 'NONE',  ( 0.000000000000000000, 0.000000000000000000, 1.000000000000000000 ) ) ;
#302 = DIRECTION ( 'NONE',  ( 1.000000000000000000, 0.000000000000000000, 0.000000000000000000 ) ) ;
#303 = DIRECTION ( 'NONE',  ( 0.000000000000000000, 0.000000000000000000, 1.000000000000000000 ) ) ;
#304 = TOROIDAL_SURFACE ( 'NONE', #210, 5.200000000000000178, 0.2000000000000000111 ) ;
#305 = ADVANCED_FACE ( 'NONE', ( #66 ), #91, .T. ) ;
#306 = DIRECTION ( 'NONE',  ( 0.000000000000000000, 0.000000000000000000, 1.000000000000000000 ) ) ;
#307 = FACE_OUTER_BOUND ( 'NONE', #99, .T. ) ;
ENDSEC;
END-ISO-10303-21;
