ISO-10303-21;
HEADER;
FILE_DESCRIPTION (( 'STEP AP203' ),
    '1' );
FILE_NAME ('929a.STEP',
    '2022-07-07T12:47:39',
    ( '' ),
    ( '' ),
    'SwSTEP 2.0',
    'SolidWorks 2019',
    '' );
FILE_SCHEMA (( 'CONFIG_CONTROL_DESIGN' ));
ENDSEC;

DATA;
#1 = APPROVAL_ROLE ( '' ) ;
#2 = ORGANIZATION ( 'NEURÈENÝ', 'NEURÈENÝ', '' ) ;
#3 = DIRECTION ( 'NONE',  ( 1.000000000000000000, 0.000000000000000000, 0.000000000000000000 ) ) ;
#4 = CARTESIAN_POINT ( 'NONE',  ( 0.000000000000000000, 0.000000000000000000, 3.199999999999980638 ) ) ;
#5 = DIRECTION ( 'NONE',  ( -0.000000000000000000, -0.000000000000000000, -1.000000000000000000 ) ) ;
#6 = ORIENTED_EDGE ( 'NONE', *, *, #303, .F. ) ;
#7 = DIRECTION ( 'NONE',  ( 0.000000000000000000, 0.000000000000000000, 1.000000000000000000 ) ) ;
#8 = CC_DESIGN_DATE_AND_TIME_ASSIGNMENT ( #19, #48, ( #85 ) ) ;
#9 = LOCAL_TIME ( 14, 47, 39.00000000000000000, #216 ) ;
#10 = LOCAL_TIME ( 14, 47, 39.00000000000000000, #67 ) ;
#11 =( LENGTH_UNIT ( ) NAMED_UNIT ( * ) SI_UNIT ( .MILLI., .METRE. ) );
#12 = EDGE_CURVE ( 'NONE', #90, #110, #117, .T. ) ;
#13 = AXIS2_PLACEMENT_3D ( 'NONE', #215, #307, #196 ) ;
#14 = VECTOR ( 'NONE', #74, 1000.000000000000000 ) ;
#15 = UNCERTAINTY_MEASURE_WITH_UNIT (LENGTH_MEASURE( 1.000000000000000082E-05 ), #11, 'distance_accuracy_value', 'NONE');
#16 = ORIENTED_EDGE ( 'NONE', *, *, #247, .F. ) ;
#17 = ADVANCED_FACE ( 'NONE', ( #236 ), #182, .T. ) ;
#18 = DIRECTION ( 'NONE',  ( 0.000000000000000000, 0.000000000000000000, 1.000000000000000000 ) ) ;
#19 = DATE_AND_TIME ( #121, #257 ) ;
#20 = ORIENTED_EDGE ( 'NONE', *, *, #248, .T. ) ;
#21 = CIRCLE ( 'NONE', #41, 2.449999999999999734 ) ;
#22 = CARTESIAN_POINT ( 'NONE',  ( 0.000000000000000000, 0.000000000000000000, 403.0000000000000000 ) ) ;
#23 = DATE_AND_TIME ( #191, #217 ) ;
#24 = CARTESIAN_POINT ( 'NONE',  ( -4.000000000000000000, 0.000000000000000000, 0.000000000000000000 ) ) ;
#25 = DATE_AND_TIME ( #112, #9 ) ;
#26 = DIRECTION ( 'NONE',  ( 1.000000000000000000, 0.000000000000000000, 0.000000000000000000 ) ) ;
#27 = LOCAL_TIME ( 14, 47, 39.00000000000000000, #194 ) ;
#28 = FACE_OUTER_BOUND ( 'NONE', #285, .T. ) ;
#29 = CARTESIAN_POINT ( 'NONE',  ( 2.250000000000000000, 2.755455298081544285E-16, 3.199999999999980638 ) ) ;
#30 = ORIENTED_EDGE ( 'NONE', *, *, #12, .T. ) ;
#31 = CARTESIAN_POINT ( 'NONE',  ( 0.000000000000000000, 0.000000000000000000, 3.199999999999980638 ) ) ;
#32 = APPROVAL ( #231, 'NEURÈENÝ' ) ;
#33 = VERTEX_POINT ( 'NONE', #305 ) ;
#34 = DIRECTION ( 'NONE',  ( 0.000000000000000000, 0.000000000000000000, 1.000000000000000000 ) ) ;
#35 = AXIS2_PLACEMENT_3D ( 'NONE', #241, #5, #267 ) ;
#36 = DIRECTION ( 'NONE',  ( 1.000000000000000000, 0.000000000000000000, -0.000000000000000000 ) ) ;
#37 = AXIS2_PLACEMENT_3D ( 'NONE', #70, #283, #163 ) ;
#38 = EDGE_CURVE ( 'NONE', #63, #292, #212, .T. ) ;
#39 = AXIS2_PLACEMENT_3D ( 'NONE', #160, #299, #144 ) ;
#40 = EDGE_CURVE ( 'NONE', #292, #63, #45, .T. ) ;
#41 = AXIS2_PLACEMENT_3D ( 'NONE', #101, #272, #227 ) ;
#42 = DIRECTION ( 'NONE',  ( -0.000000000000000000, -0.000000000000000000, -1.000000000000000000 ) ) ;
#43 = APPLICATION_CONTEXT ( 'configuration controlled 3d designs of mechanical parts and assemblies' ) ;
#44 = EDGE_CURVE ( 'NONE', #206, #251, #304, .T. ) ;
#45 = CIRCLE ( 'NONE', #39, 4.000000000000000000 ) ;
#46 = ORIENTED_EDGE ( 'NONE', *, *, #38, .T. ) ;
#47 = EDGE_LOOP ( 'NONE', ( #16, #170, #148, #213 ) ) ;
#48 = DATE_TIME_ROLE ( 'classification_date' ) ;
#49 = AXIS2_PLACEMENT_3D ( 'NONE', #150, #7, #290 ) ;
#50 = CARTESIAN_POINT ( 'NONE',  ( 2.449999999999999734, 0.000000000000000000, 2.999999999999990674 ) ) ;
#51 = ORIENTED_EDGE ( 'NONE', *, *, #184, .F. ) ;
#52 = PERSON_AND_ORGANIZATION_ROLE ( 'design_supplier' ) ;
#53 = DIRECTION ( 'NONE',  ( 0.000000000000000000, 0.000000000000000000, 1.000000000000000000 ) ) ;
#54 = ORIENTED_EDGE ( 'NONE', *, *, #181, .F. ) ;
#55 = FACE_OUTER_BOUND ( 'NONE', #300, .T. ) ;
#56 = APPLICATION_PROTOCOL_DEFINITION ( 'international standard', 'config_control_design', 1994, #43 ) ;
#57 = CARTESIAN_POINT ( 'NONE',  ( -2.449999999999999734, 3.000384657911015370E-16, 2.999999999999990674 ) ) ;
#58 = EDGE_LOOP ( 'NONE', ( #73, #65, #88, #20 ) ) ;
#59 = AXIS2_PLACEMENT_3D ( 'NONE', #22, #118, #109 ) ;
#60 = EDGE_CURVE ( 'NONE', #292, #239, #301, .T. ) ;
#61 =( GEOMETRIC_REPRESENTATION_CONTEXT ( 3 ) GLOBAL_UNCERTAINTY_ASSIGNED_CONTEXT ( ( #15 ) ) GLOBAL_UNIT_ASSIGNED_CONTEXT ( ( #11, #296, #245 ) ) REPRESENTATION_CONTEXT ( 'NONE', 'WORKASPACE' ) );
#62 = ADVANCED_FACE ( 'NONE', ( #186, #281 ), #229, .T. ) ;
#63 = VERTEX_POINT ( 'NONE', #66 ) ;
#64 = CC_DESIGN_SECURITY_CLASSIFICATION ( #85, ( #185 ) ) ;
#65 = ORIENTED_EDGE ( 'NONE', *, *, #99, .F. ) ;
#66 = CARTESIAN_POINT ( 'NONE',  ( 4.000000000000000000, 4.898587196589412829E-16, 3.000000000000000000 ) ) ;
#67 = COORDINATED_UNIVERSAL_TIME_OFFSET ( 1, 0, .AHEAD. ) ;
#68 = CARTESIAN_POINT ( 'NONE',  ( -4.000000000000000000, 0.000000000000000000, 3.000000000000000000 ) ) ;
#69 = CC_DESIGN_APPROVAL ( #32, ( #185 ) ) ;
#70 = CARTESIAN_POINT ( 'NONE',  ( 0.000000000000000000, 0.000000000000000000, 3.000000000000000000 ) ) ;
#71 = PERSON_AND_ORGANIZATION ( #201, #2 ) ;
#72 = DIRECTION ( 'NONE',  ( -0.000000000000000000, -0.000000000000000000, -1.000000000000000000 ) ) ;
#73 = ORIENTED_EDGE ( 'NONE', *, *, #214, .F. ) ;
#74 = DIRECTION ( 'NONE',  ( -0.000000000000000000, -0.000000000000000000, -1.000000000000000000 ) ) ;
#75 = EDGE_LOOP ( 'NONE', ( #97, #167 ) ) ;
#76 = EDGE_CURVE ( 'NONE', #33, #206, #204, .T. ) ;
#77 = MANIFOLD_SOLID_BREP ( 'Zaoblit1', #87 ) ;
#78 = CARTESIAN_POINT ( 'NONE',  ( 0.000000000000000000, 0.000000000000000000, 3.000000000000000000 ) ) ;
#79 = FACE_OUTER_BOUND ( 'NONE', #47, .T. ) ;
#80 = DIRECTION ( 'NONE',  ( 0.000000000000000000, 0.000000000000000000, -1.000000000000000000 ) ) ;
#81 = PLANE ( 'NONE',  #122 ) ;
#82 = AXIS2_PLACEMENT_3D ( 'NONE', #295, #266, #3 ) ;
#83 = PERSON_AND_ORGANIZATION ( #201, #2 ) ;
#84 = APPROVAL ( #96, 'NEURÈENÝ' ) ;
#85 = SECURITY_CLASSIFICATION ( '', '', #291 ) ;
#86 = APPROVAL_PERSON_ORGANIZATION ( #83, #235, #306 ) ;
#87 = CLOSED_SHELL ( 'NONE', ( #116, #250, #133, #271, #62, #262, #17, #192, #174 ) ) ;
#88 = ORIENTED_EDGE ( 'NONE', *, *, #44, .T. ) ;
#89 = ORIENTED_EDGE ( 'NONE', *, *, #40, .T. ) ;
#90 = VERTEX_POINT ( 'NONE', #50 ) ;
#91 = PERSON_AND_ORGANIZATION ( #201, #2 ) ;
#92 = CARTESIAN_POINT ( 'NONE',  ( 0.000000000000000000, 0.000000000000000000, 403.0000000000000000 ) ) ;
#93 = EDGE_LOOP ( 'NONE', ( #30, #255 ) ) ;
#94 = AXIS2_PLACEMENT_3D ( 'NONE', #168, #147, #26 ) ;
#95 = LINE ( 'NONE', #193, #14 ) ;
#96 = APPROVAL_STATUS ( 'not_yet_approved' ) ;
#97 = ORIENTED_EDGE ( 'NONE', *, *, #240, .F. ) ;
#98 = DIRECTION ( 'NONE',  ( 1.000000000000000000, 0.000000000000000000, -0.000000000000000000 ) ) ;
#99 = EDGE_CURVE ( 'NONE', #206, #33, #252, .T. ) ;
#100 = FACE_OUTER_BOUND ( 'NONE', #242, .T. ) ;
#101 = CARTESIAN_POINT ( 'NONE',  ( 0.000000000000000000, 0.000000000000000000, 3.000000000000000000 ) ) ;
#102 = CARTESIAN_POINT ( 'NONE',  ( -2.250000000000000000, 0.000000000000000000, 403.0000000000000000 ) ) ;
#103 = PERSON_AND_ORGANIZATION ( #201, #2 ) ;
#104 = AXIS2_PLACEMENT_3D ( 'NONE', #246, #128, #264 ) ;
#105 = PERSON_AND_ORGANIZATION_ROLE ( 'design_owner' ) ;
#106 = CC_DESIGN_DATE_AND_TIME_ASSIGNMENT ( #25, #256, ( #136 ) ) ;
#107 = AXIS2_PLACEMENT_3D ( 'NONE', #4, #172, #218 ) ;
#108 = APPLICATION_CONTEXT ( 'configuration controlled 3d designs of mechanical parts and assemblies' ) ;
#109 = DIRECTION ( 'NONE',  ( 1.000000000000000000, 0.000000000000000000, 0.000000000000000000 ) ) ;
#110 = VERTEX_POINT ( 'NONE', #57 ) ;
#111 = DIRECTION ( 'NONE',  ( 1.000000000000000000, 0.000000000000000000, 0.000000000000000000 ) ) ;
#112 = CALENDAR_DATE ( 2022, 7, 7 ) ;
#113 = CIRCLE ( 'NONE', #13, 4.000000000000000000 ) ;
#114 = ORIENTED_EDGE ( 'NONE', *, *, #12, .F. ) ;
#115 = COORDINATED_UNIVERSAL_TIME_OFFSET ( 1, 0, .AHEAD. ) ;
#116 = ADVANCED_FACE ( 'NONE', ( #125 ), #228, .F. ) ;
#117 = CIRCLE ( 'NONE', #268, 2.449999999999999734 ) ;
#118 = DIRECTION ( 'NONE',  ( 0.000000000000000000, 0.000000000000000000, 1.000000000000000000 ) ) ;
#119 = ORIENTED_EDGE ( 'NONE', *, *, #155, .T. ) ;
#120 = CARTESIAN_POINT ( 'NONE',  ( 4.000000000000000000, 4.898587196589412829E-16, 0.000000000000000000 ) ) ;
#121 = CALENDAR_DATE ( 2022, 7, 7 ) ;
#122 = AXIS2_PLACEMENT_3D ( 'NONE', #270, #34, #36 ) ;
#123 = DIRECTION ( 'NONE',  ( 0.000000000000000000, -1.000000000000000000, 0.000000000000000000 ) ) ;
#124 = VECTOR ( 'NONE', #208, 1000.000000000000000 ) ;
#125 = FACE_OUTER_BOUND ( 'NONE', #152, .T. ) ;
#126 = CARTESIAN_POINT ( 'NONE',  ( 0.000000000000000000, 0.000000000000000000, 403.0000000000000000 ) ) ;
#127 = CARTESIAN_POINT ( 'NONE',  ( 0.000000000000000000, 0.000000000000000000, 403.0000000000000000 ) ) ;
#128 = DIRECTION ( 'NONE',  ( 0.000000000000000000, 0.000000000000000000, 1.000000000000000000 ) ) ;
#129 = VECTOR ( 'NONE', #166, 1000.000000000000000 ) ;
#130 = CYLINDRICAL_SURFACE ( 'NONE', #35, 4.000000000000000000 ) ;
#131 = CC_DESIGN_PERSON_AND_ORGANIZATION_ASSIGNMENT ( #71, #52, ( #185 ) ) ;
#132 = AXIS2_PLACEMENT_3D ( 'NONE', #210, #18, #111 ) ;
#133 = ADVANCED_FACE ( 'NONE', ( #100 ), #260, .T. ) ;
#134 = TOROIDAL_SURFACE ( 'NONE', #287, 2.449999999999999734, 0.2000000000000000111 ) ;
#135 = VECTOR ( 'NONE', #138, 1000.000000000000000 ) ;
#136 = PRODUCT_DEFINITION ( 'NEZNÁMÝ', '', #185, #207 ) ;
#137 = APPROVAL_PERSON_ORGANIZATION ( #91, #32, #1 ) ;
#138 = DIRECTION ( 'NONE',  ( -0.000000000000000000, -0.000000000000000000, -1.000000000000000000 ) ) ;
#139 = VERTEX_POINT ( 'NONE', #120 ) ;
#140 = DIRECTION ( 'NONE',  ( 0.000000000000000000, 0.000000000000000000, 1.000000000000000000 ) ) ;
#141 = PERSON_AND_ORGANIZATION ( #201, #2 ) ;
#142 = AXIS2_PLACEMENT_3D ( 'NONE', #126, #294, #177 ) ;
#143 = AXIS2_PLACEMENT_3D ( 'NONE', #293, #244, #220 ) ;
#144 = DIRECTION ( 'NONE',  ( 1.000000000000000000, 0.000000000000000000, 0.000000000000000000 ) ) ;
#145 = CARTESIAN_POINT ( 'NONE',  ( 0.000000000000000000, 0.000000000000000000, 3.000000000000000000 ) ) ;
#146 = DATE_AND_TIME ( #284, #27 ) ;
#147 = DIRECTION ( 'NONE',  ( 0.000000000000000000, 0.000000000000000000, 1.000000000000000000 ) ) ;
#148 = ORIENTED_EDGE ( 'NONE', *, *, #60, .T. ) ;
#149 = CIRCLE ( 'NONE', #94, 2.250000000000000000 ) ;
#150 = CARTESIAN_POINT ( 'NONE',  ( 0.000000000000000000, 0.000000000000000000, 0.000000000000000000 ) ) ;
#151 = APPROVAL_STATUS ( 'not_yet_approved' ) ;
#152 = EDGE_LOOP ( 'NONE', ( #219, #158, #114, #195 ) ) ;
#153 = DIRECTION ( 'NONE',  ( 0.000000000000000000, 0.000000000000000000, 1.000000000000000000 ) ) ;
#154 = EDGE_LOOP ( 'NONE', ( #89, #46 ) ) ;
#155 = EDGE_CURVE ( 'NONE', #277, #90, #243, .T. ) ;
#156 = ORIENTED_EDGE ( 'NONE', *, *, #76, .T. ) ;
#157 = AXIS2_PLACEMENT_3D ( 'NONE', #197, #123, #80 ) ;
#158 = ORIENTED_EDGE ( 'NONE', *, *, #181, .T. ) ;
#159 = SHAPE_DEFINITION_REPRESENTATION ( #226, #179 ) ;
#160 = CARTESIAN_POINT ( 'NONE',  ( 0.000000000000000000, 0.000000000000000000, 3.000000000000000000 ) ) ;
#161 = COORDINATED_UNIVERSAL_TIME_OFFSET ( 1, 0, .AHEAD. ) ;
#162 = DIRECTION ( 'NONE',  ( 1.000000000000000000, 0.000000000000000000, 0.000000000000000000 ) ) ;
#163 = DIRECTION ( 'NONE',  ( 1.000000000000000000, 0.000000000000000000, -0.000000000000000000 ) ) ;
#164 = PERSON_AND_ORGANIZATION ( #201, #2 ) ;
#165 = AXIS2_PLACEMENT_3D ( 'NONE', #92, #42, #279 ) ;
#166 = DIRECTION ( 'NONE',  ( -0.000000000000000000, -0.000000000000000000, -1.000000000000000000 ) ) ;
#167 = ORIENTED_EDGE ( 'NONE', *, *, #202, .F. ) ;
#168 = CARTESIAN_POINT ( 'NONE',  ( 0.000000000000000000, 0.000000000000000000, 3.199999999999980638 ) ) ;
#169 = CARTESIAN_POINT ( 'NONE',  ( -4.000000000000000000, 0.000000000000000000, 3.000000000000000000 ) ) ;
#170 = ORIENTED_EDGE ( 'NONE', *, *, #40, .F. ) ;
#171 = AXIS2_PLACEMENT_3D ( 'NONE', #127, #153, #98 ) ;
#172 = DIRECTION ( 'NONE',  ( 0.000000000000000000, 0.000000000000000000, 1.000000000000000000 ) ) ;
#173 = FACE_OUTER_BOUND ( 'NONE', #75, .T. ) ;
#174 = ADVANCED_FACE ( 'NONE', ( #175 ), #134, .F. ) ;
#175 = FACE_OUTER_BOUND ( 'NONE', #199, .T. ) ;
#176 = CYLINDRICAL_SURFACE ( 'NONE', #142, 2.250000000000000000 ) ;
#177 = DIRECTION ( 'NONE',  ( -1.000000000000000000, 0.000000000000000000, 0.000000000000000000 ) ) ;
#178 = CIRCLE ( 'NONE', #49, 4.000000000000000000 ) ;
#179 = ADVANCED_BREP_SHAPE_REPRESENTATION ( '929a', ( #77, #104 ), #61 ) ;
#180 = CIRCLE ( 'NONE', #143, 0.2000000000000000944 ) ;
#181 = EDGE_CURVE ( 'NONE', #251, #110, #180, .T. ) ;
#182 = CYLINDRICAL_SURFACE ( 'NONE', #165, 2.250000000000000000 ) ;
#183 = ORIENTED_EDGE ( 'NONE', *, *, #38, .F. ) ;
#184 = EDGE_CURVE ( 'NONE', #277, #251, #280, .T. ) ;
#185 = PRODUCT_DEFINITION_FORMATION_WITH_SPECIFIED_SOURCE ( 'LIBOVOLNÝ', '', #274, .NOT_KNOWN. ) ;
#186 = FACE_BOUND ( 'NONE', #93, .T. ) ;
#187 = DATE_AND_TIME ( #254, #10 ) ;
#188 = CARTESIAN_POINT ( 'NONE',  ( -2.250000000000000000, 0.000000000000000000, 403.0000000000000000 ) ) ;
#189 = APPROVAL_ROLE ( '' ) ;
#190 = DIRECTION ( 'NONE',  ( -0.000000000000000000, -0.000000000000000000, -1.000000000000000000 ) ) ;
#191 = CALENDAR_DATE ( 2022, 7, 7 ) ;
#192 = ADVANCED_FACE ( 'NONE', ( #55 ), #238, .T. ) ;
#193 = CARTESIAN_POINT ( 'NONE',  ( 4.000000000000000000, 4.898587196589412829E-16, 3.000000000000000000 ) ) ;
#194 = COORDINATED_UNIVERSAL_TIME_OFFSET ( 1, 0, .AHEAD. ) ;
#195 = ORIENTED_EDGE ( 'NONE', *, *, #155, .F. ) ;
#196 = DIRECTION ( 'NONE',  ( 1.000000000000000000, 0.000000000000000000, 0.000000000000000000 ) ) ;
#197 = CARTESIAN_POINT ( 'NONE',  ( 2.449999999999999734, 0.000000000000000000, 3.199999999999980638 ) ) ;
#198 = CARTESIAN_POINT ( 'NONE',  ( -2.250000000000000000, 0.000000000000000000, 3.199999999999980638 ) ) ;
#199 = EDGE_LOOP ( 'NONE', ( #54, #51, #119, #6 ) ) ;
#200 = CC_DESIGN_APPROVAL ( #84, ( #85 ) ) ;
#201 = PERSON ( 'NEURÈENÝ', 'NEURÈENÝ', 'NEURÈENÝ', ('NEURÈENÝ'), ('NEURÈENÝ'), ('NEURÈENÝ') ) ;
#202 = EDGE_CURVE ( 'NONE', #139, #239, #178, .T. ) ;
#203 = ORIENTED_EDGE ( 'NONE', *, *, #60, .F. ) ;
#204 = CIRCLE ( 'NONE', #275, 2.250000000000000000 ) ;
#205 = PRODUCT_RELATED_PRODUCT_CATEGORY ( 'detail', '', ( #274 ) ) ;
#206 = VERTEX_POINT ( 'NONE', #102 ) ;
#207 = DESIGN_CONTEXT ( 'detailed design', #43, 'design' ) ;
#208 = DIRECTION ( 'NONE',  ( -0.000000000000000000, -0.000000000000000000, -1.000000000000000000 ) ) ;
#209 = PERSON_AND_ORGANIZATION_ROLE ( 'classification_officer' ) ;
#210 = CARTESIAN_POINT ( 'NONE',  ( 0.000000000000000000, 0.000000000000000000, 3.000000000000000000 ) ) ;
#211 = PERSON_AND_ORGANIZATION_ROLE ( 'creator' ) ;
#212 = CIRCLE ( 'NONE', #132, 4.000000000000000000 ) ;
#213 = ORIENTED_EDGE ( 'NONE', *, *, #240, .T. ) ;
#214 = EDGE_CURVE ( 'NONE', #33, #277, #269, .T. ) ;
#215 = CARTESIAN_POINT ( 'NONE',  ( 0.000000000000000000, 0.000000000000000000, 0.000000000000000000 ) ) ;
#216 = COORDINATED_UNIVERSAL_TIME_OFFSET ( 1, 0, .AHEAD. ) ;
#217 = LOCAL_TIME ( 14, 47, 39.00000000000000000, #115 ) ;
#218 = DIRECTION ( 'NONE',  ( 1.000000000000000000, 0.000000000000000000, 0.000000000000000000 ) ) ;
#219 = ORIENTED_EDGE ( 'NONE', *, *, #248, .F. ) ;
#220 = DIRECTION ( 'NONE',  ( -1.000000000000000000, 1.224646799147353207E-16, 0.000000000000000000 ) ) ;
#221 = CC_DESIGN_PERSON_AND_ORGANIZATION_ASSIGNMENT ( #259, #237, ( #136 ) ) ;
#222 = MECHANICAL_CONTEXT ( 'NONE', #108, 'mechanical' ) ;
#223 = ORIENTED_EDGE ( 'NONE', *, *, #44, .F. ) ;
#224 = DIRECTION ( 'NONE',  ( 1.000000000000000000, 0.000000000000000000, 0.000000000000000000 ) ) ;
#225 = APPLICATION_PROTOCOL_DEFINITION ( 'international standard', 'config_control_design', 1994, #108 ) ;
#226 = PRODUCT_DEFINITION_SHAPE ( 'NONE', 'NONE',  #136 ) ;
#227 = DIRECTION ( 'NONE',  ( 1.000000000000000000, 0.000000000000000000, 0.000000000000000000 ) ) ;
#228 = TOROIDAL_SURFACE ( 'NONE', #82, 2.449999999999999734, 0.2000000000000000111 ) ;
#229 = PLANE ( 'NONE',  #37 ) ;
#230 = ORIENTED_EDGE ( 'NONE', *, *, #99, .T. ) ;
#231 = APPROVAL_STATUS ( 'not_yet_approved' ) ;
#232 = ORIENTED_EDGE ( 'NONE', *, *, #184, .T. ) ;
#233 = APPROVAL_DATE_TIME ( #187, #235 ) ;
#234 = ORIENTED_EDGE ( 'NONE', *, *, #247, .T. ) ;
#235 = APPROVAL ( #151, 'NEURÈENÝ' ) ;
#236 = FACE_OUTER_BOUND ( 'NONE', #58, .T. ) ;
#237 = PERSON_AND_ORGANIZATION_ROLE ( 'creator' ) ;
#238 = PLANE ( 'NONE',  #171 ) ;
#239 = VERTEX_POINT ( 'NONE', #24 ) ;
#240 = EDGE_CURVE ( 'NONE', #239, #139, #113, .T. ) ;
#241 = CARTESIAN_POINT ( 'NONE',  ( 0.000000000000000000, 0.000000000000000000, 3.000000000000000000 ) ) ;
#242 = EDGE_LOOP ( 'NONE', ( #183, #234, #265, #203 ) ) ;
#243 = CIRCLE ( 'NONE', #157, 0.2000000000000000944 ) ;
#244 = DIRECTION ( 'NONE',  ( 1.224646799147353207E-16, 1.000000000000000000, -0.000000000000000000 ) ) ;
#245 =( NAMED_UNIT ( * ) SI_UNIT ( $, .STERADIAN. ) SOLID_ANGLE_UNIT ( ) );
#246 = CARTESIAN_POINT ( 'NONE',  ( 0.000000000000000000, 0.000000000000000000, 0.000000000000000000 ) ) ;
#247 = EDGE_CURVE ( 'NONE', #63, #139, #95, .T. ) ;
#248 = EDGE_CURVE ( 'NONE', #251, #277, #149, .T. ) ;
#249 = DIRECTION ( 'NONE',  ( 1.000000000000000000, 0.000000000000000000, 0.000000000000000000 ) ) ;
#250 = ADVANCED_FACE ( 'NONE', ( #28 ), #176, .T. ) ;
#251 = VERTEX_POINT ( 'NONE', #198 ) ;
#252 = CIRCLE ( 'NONE', #59, 2.250000000000000000 ) ;
#253 = CARTESIAN_POINT ( 'NONE',  ( 0.000000000000000000, 0.000000000000000000, 403.0000000000000000 ) ) ;
#254 = CALENDAR_DATE ( 2022, 7, 7 ) ;
#255 = ORIENTED_EDGE ( 'NONE', *, *, #303, .T. ) ;
#256 = DATE_TIME_ROLE ( 'creation_date' ) ;
#257 = LOCAL_TIME ( 14, 47, 39.00000000000000000, #161 ) ;
#258 = ORIENTED_EDGE ( 'NONE', *, *, #214, .T. ) ;
#259 = PERSON_AND_ORGANIZATION ( #201, #2 ) ;
#260 = CYLINDRICAL_SURFACE ( 'NONE', #302, 4.000000000000000000 ) ;
#261 = ORIENTED_EDGE ( 'NONE', *, *, #76, .F. ) ;
#262 = ADVANCED_FACE ( 'NONE', ( #173 ), #81, .F. ) ;
#263 = DIRECTION ( 'NONE',  ( -1.000000000000000000, 0.000000000000000000, 0.000000000000000000 ) ) ;
#264 = DIRECTION ( 'NONE',  ( 1.000000000000000000, 0.000000000000000000, 0.000000000000000000 ) ) ;
#265 = ORIENTED_EDGE ( 'NONE', *, *, #202, .T. ) ;
#266 = DIRECTION ( 'NONE',  ( 0.000000000000000000, 0.000000000000000000, 1.000000000000000000 ) ) ;
#267 = DIRECTION ( 'NONE',  ( -1.000000000000000000, 0.000000000000000000, 0.000000000000000000 ) ) ;
#268 = AXIS2_PLACEMENT_3D ( 'NONE', #145, #190, #249 ) ;
#269 = LINE ( 'NONE', #288, #129 ) ;
#270 = CARTESIAN_POINT ( 'NONE',  ( 0.000000000000000000, 0.000000000000000000, 0.000000000000000000 ) ) ;
#271 = ADVANCED_FACE ( 'NONE', ( #79 ), #130, .T. ) ;
#272 = DIRECTION ( 'NONE',  ( -0.000000000000000000, -0.000000000000000000, -1.000000000000000000 ) ) ;
#273 = CC_DESIGN_APPROVAL ( #235, ( #136 ) ) ;
#274 = PRODUCT ( '929a', '929a', '', ( #222 ) ) ;
#275 = AXIS2_PLACEMENT_3D ( 'NONE', #253, #140, #162 ) ;
#276 = CC_DESIGN_PERSON_AND_ORGANIZATION_ASSIGNMENT ( #103, #105, ( #274 ) ) ;
#277 = VERTEX_POINT ( 'NONE', #29 ) ;
#278 = CC_DESIGN_PERSON_AND_ORGANIZATION_ASSIGNMENT ( #164, #209, ( #85 ) ) ;
#279 = DIRECTION ( 'NONE',  ( -1.000000000000000000, 0.000000000000000000, 0.000000000000000000 ) ) ;
#280 = CIRCLE ( 'NONE', #107, 2.250000000000000000 ) ;
#281 = FACE_OUTER_BOUND ( 'NONE', #154, .T. ) ;
#282 = APPROVAL_DATE_TIME ( #23, #32 ) ;
#283 = DIRECTION ( 'NONE',  ( 0.000000000000000000, 0.000000000000000000, 1.000000000000000000 ) ) ;
#284 = CALENDAR_DATE ( 2022, 7, 7 ) ;
#285 = EDGE_LOOP ( 'NONE', ( #261, #258, #232, #223 ) ) ;
#286 = PERSON_AND_ORGANIZATION ( #201, #2 ) ;
#287 = AXIS2_PLACEMENT_3D ( 'NONE', #31, #53, #224 ) ;
#288 = CARTESIAN_POINT ( 'NONE',  ( 2.250000000000000000, 2.755455298081544285E-16, 403.0000000000000000 ) ) ;
#289 = APPROVAL_DATE_TIME ( #146, #84 ) ;
#290 = DIRECTION ( 'NONE',  ( 1.000000000000000000, 0.000000000000000000, 0.000000000000000000 ) ) ;
#291 = SECURITY_CLASSIFICATION_LEVEL ( 'unclassified' ) ;
#292 = VERTEX_POINT ( 'NONE', #169 ) ;
#293 = CARTESIAN_POINT ( 'NONE',  ( -2.449999999999999734, 3.000384657911015370E-16, 3.199999999999980638 ) ) ;
#294 = DIRECTION ( 'NONE',  ( -0.000000000000000000, -0.000000000000000000, -1.000000000000000000 ) ) ;
#295 = CARTESIAN_POINT ( 'NONE',  ( 0.000000000000000000, 0.000000000000000000, 3.199999999999980638 ) ) ;
#296 =( NAMED_UNIT ( * ) PLANE_ANGLE_UNIT ( ) SI_UNIT ( $, .RADIAN. ) );
#297 = CC_DESIGN_PERSON_AND_ORGANIZATION_ASSIGNMENT ( #286, #211, ( #185 ) ) ;
#298 = APPROVAL_PERSON_ORGANIZATION ( #141, #84, #189 ) ;
#299 = DIRECTION ( 'NONE',  ( 0.000000000000000000, 0.000000000000000000, 1.000000000000000000 ) ) ;
#300 = EDGE_LOOP ( 'NONE', ( #230, #156 ) ) ;
#301 = LINE ( 'NONE', #68, #135 ) ;
#302 = AXIS2_PLACEMENT_3D ( 'NONE', #78, #72, #263 ) ;
#303 = EDGE_CURVE ( 'NONE', #110, #90, #21, .T. ) ;
#304 = LINE ( 'NONE', #188, #124 ) ;
#305 = CARTESIAN_POINT ( 'NONE',  ( 2.250000000000000000, 2.755455298081544285E-16, 403.0000000000000000 ) ) ;
#306 = APPROVAL_ROLE ( '' ) ;
#307 = DIRECTION ( 'NONE',  ( 0.000000000000000000, 0.000000000000000000, 1.000000000000000000 ) ) ;
ENDSEC;
END-ISO-10303-21;
