ISO-10303-21;
HEADER;
FILE_DESCRIPTION (( 'STEP AP203' ),
    '1' );
FILE_NAME ('c4df.STEP',
    '2022-07-07T12:41:24',
    ( '' ),
    ( '' ),
    'SwSTEP 2.0',
    'SolidWorks 2019',
    '' );
FILE_SCHEMA (( 'CONFIG_CONTROL_DESIGN' ));
ENDSEC;

DATA;
#1 = EDGE_CURVE ( 'NONE', #263, #119, #256, .T. ) ;
#2 = DIRECTION ( 'NONE',  ( 0.000000000000000000, 0.000000000000000000, 1.000000000000000000 ) ) ;
#3 = DIRECTION ( 'NONE',  ( 1.000000000000000000, 0.000000000000000000, -0.000000000000000000 ) ) ;
#4 = AXIS2_PLACEMENT_3D ( 'NONE', #283, #172, #72 ) ;
#5 = COORDINATED_UNIVERSAL_TIME_OFFSET ( 1, 0, .AHEAD. ) ;
#6 = PERSON_AND_ORGANIZATION ( #18, #168 ) ;
#7 = DIRECTION ( 'NONE',  ( 1.000000000000000000, 0.000000000000000000, 0.000000000000000000 ) ) ;
#8 = AXIS2_PLACEMENT_3D ( 'NONE', #14, #255, #139 ) ;
#9 = APPROVAL_PERSON_ORGANIZATION ( #270, #212, #118 ) ;
#10 = PLANE ( 'NONE',  #25 ) ;
#11 = ORIENTED_EDGE ( 'NONE', *, *, #125, .F. ) ;
#12 = DIRECTION ( 'NONE',  ( 0.000000000000000000, 0.000000000000000000, 1.000000000000000000 ) ) ;
#13 = VECTOR ( 'NONE', #19, 1000.000000000000000 ) ;
#14 = CARTESIAN_POINT ( 'NONE',  ( 0.000000000000000000, 0.000000000000000000, 105.0000000000000142 ) ) ;
#15 = CARTESIAN_POINT ( 'NONE',  ( 0.000000000000000000, 0.000000000000000000, 5.000000000000000000 ) ) ;
#16 = ADVANCED_FACE ( 'NONE', ( #188 ), #186, .T. ) ;
#17 = CARTESIAN_POINT ( 'NONE',  ( 3.100000000000000089, 3.796405077356794918E-16, 105.0000000000000142 ) ) ;
#18 = PERSON ( 'NEURÈENÝ', 'NEURÈENÝ', 'NEURÈENÝ', ('NEURÈENÝ'), ('NEURÈENÝ'), ('NEURÈENÝ') ) ;
#19 = DIRECTION ( 'NONE',  ( -0.000000000000000000, -0.000000000000000000, -1.000000000000000000 ) ) ;
#20 = CC_DESIGN_PERSON_AND_ORGANIZATION_ASSIGNMENT ( #36, #74, ( #114 ) ) ;
#21 = APPROVAL_PERSON_ORGANIZATION ( #307, #278, #219 ) ;
#22 = ORIENTED_EDGE ( 'NONE', *, *, #27, .T. ) ;
#23 = VERTEX_POINT ( 'NONE', #294 ) ;
#24 = CC_DESIGN_DATE_AND_TIME_ASSIGNMENT ( #102, #248, ( #114 ) ) ;
#25 = AXIS2_PLACEMENT_3D ( 'NONE', #300, #297, #276 ) ;
#26 = SHAPE_DEFINITION_REPRESENTATION ( #229, #202 ) ;
#27 = EDGE_CURVE ( 'NONE', #103, #304, #182, .T. ) ;
#28 = PERSON_AND_ORGANIZATION ( #18, #168 ) ;
#29 = PRODUCT_DEFINITION ( 'NEZNÁMÝ', '', #272, #130 ) ;
#30 = DIRECTION ( 'NONE',  ( -0.000000000000000000, -0.000000000000000000, -1.000000000000000000 ) ) ;
#31 = DIRECTION ( 'NONE',  ( -0.000000000000000000, -0.000000000000000000, -1.000000000000000000 ) ) ;
#32 = EDGE_CURVE ( 'NONE', #119, #108, #254, .T. ) ;
#33 = DIRECTION ( 'NONE',  ( 1.000000000000000000, 0.000000000000000000, -0.000000000000000000 ) ) ;
#34 = DATE_AND_TIME ( #173, #187 ) ;
#35 = APPROVAL_PERSON_ORGANIZATION ( #50, #128, #178 ) ;
#36 = PERSON_AND_ORGANIZATION ( #18, #168 ) ;
#37 = CARTESIAN_POINT ( 'NONE',  ( -3.100000000000000089, 0.000000000000000000, 105.0000000000000142 ) ) ;
#38 = ORIENTED_EDGE ( 'NONE', *, *, #69, .T. ) ;
#39 = CIRCLE ( 'NONE', #8, 3.100000000000000089 ) ;
#40 = ORIENTED_EDGE ( 'NONE', *, *, #125, .T. ) ;
#41 = DIRECTION ( 'NONE',  ( 0.000000000000000000, 0.000000000000000000, 1.000000000000000000 ) ) ;
#42 = DIRECTION ( 'NONE',  ( 0.000000000000000000, -1.000000000000000000, 0.000000000000000000 ) ) ;
#43 = CARTESIAN_POINT ( 'NONE',  ( 3.100000000000000089, 3.796405077356794918E-16, 105.0000000000000142 ) ) ;
#44 = DIRECTION ( 'NONE',  ( 1.000000000000000000, 0.000000000000000000, 0.000000000000000000 ) ) ;
#45 = ORIENTED_EDGE ( 'NONE', *, *, #170, .F. ) ;
#46 = ORIENTED_EDGE ( 'NONE', *, *, #134, .T. ) ;
#47 = AXIS2_PLACEMENT_3D ( 'NONE', #64, #42, #218 ) ;
#48 = VERTEX_POINT ( 'NONE', #37 ) ;
#49 = MECHANICAL_CONTEXT ( 'NONE', #80, 'mechanical' ) ;
#50 = PERSON_AND_ORGANIZATION ( #18, #168 ) ;
#51 = APPLICATION_PROTOCOL_DEFINITION ( 'international standard', 'config_control_design', 1994, #143 ) ;
#52 = PLANE ( 'NONE',  #206 ) ;
#53 = CALENDAR_DATE ( 2022, 7, 7 ) ;
#54 = CC_DESIGN_PERSON_AND_ORGANIZATION_ASSIGNMENT ( #6, #98, ( #272 ) ) ;
#55 = CARTESIAN_POINT ( 'NONE',  ( 0.000000000000000000, 0.000000000000000000, 5.199999999999996625 ) ) ;
#56 = SECURITY_CLASSIFICATION_LEVEL ( 'unclassified' ) ;
#57 = CC_DESIGN_PERSON_AND_ORGANIZATION_ASSIGNMENT ( #28, #120, ( #299 ) ) ;
#58 = APPROVAL_DATE_TIME ( #131, #212 ) ;
#59 = AXIS2_PLACEMENT_3D ( 'NONE', #258, #234, #44 ) ;
#60 = ORIENTED_EDGE ( 'NONE', *, *, #32, .T. ) ;
#61 = AXIS2_PLACEMENT_3D ( 'NONE', #67, #235, #190 ) ;
#62 = DIRECTION ( 'NONE',  ( -0.000000000000000000, -0.000000000000000000, -1.000000000000000000 ) ) ;
#63 = CARTESIAN_POINT ( 'NONE',  ( -6.000000000000000888, 0.000000000000000000, 5.000000000000000000 ) ) ;
#64 = CARTESIAN_POINT ( 'NONE',  ( 3.299999999999999822, 0.000000000000000000, 5.199999999999996625 ) ) ;
#65 = FACE_OUTER_BOUND ( 'NONE', #75, .T. ) ;
#66 = LOCAL_TIME ( 14, 41, 24.00000000000000000, #124 ) ;
#67 = CARTESIAN_POINT ( 'NONE',  ( 0.000000000000000000, 0.000000000000000000, 5.000000000000000000 ) ) ;
#68 = ORIENTED_EDGE ( 'NONE', *, *, #170, .T. ) ;
#69 = EDGE_CURVE ( 'NONE', #23, #201, #146, .T. ) ;
#70 = ORIENTED_EDGE ( 'NONE', *, *, #122, .F. ) ;
#71 = CIRCLE ( 'NONE', #47, 0.1999999999999996503 ) ;
#72 = DIRECTION ( 'NONE',  ( 1.000000000000000000, 0.000000000000000000, 0.000000000000000000 ) ) ;
#73 = EDGE_CURVE ( 'NONE', #201, #23, #292, .T. ) ;
#74 = PERSON_AND_ORGANIZATION_ROLE ( 'classification_officer' ) ;
#75 = EDGE_LOOP ( 'NONE', ( #260, #214, #22, #11 ) ) ;
#76 = PERSON_AND_ORGANIZATION_ROLE ( 'creator' ) ;
#77 = CALENDAR_DATE ( 2022, 7, 7 ) ;
#78 = AXIS2_PLACEMENT_3D ( 'NONE', #15, #86, #189 ) ;
#79 = CYLINDRICAL_SURFACE ( 'NONE', #253, 3.100000000000000089 ) ;
#80 = APPLICATION_CONTEXT ( 'configuration controlled 3d designs of mechanical parts and assemblies' ) ;
#81 = DIRECTION ( 'NONE',  ( 1.000000000000000000, 0.000000000000000000, 0.000000000000000000 ) ) ;
#82 = AXIS2_PLACEMENT_3D ( 'NONE', #203, #132, #7 ) ;
#83 = DIRECTION ( 'NONE',  ( 1.000000000000000000, 0.000000000000000000, 0.000000000000000000 ) ) ;
#84 = DIRECTION ( 'NONE',  ( 1.000000000000000000, 0.000000000000000000, 0.000000000000000000 ) ) ;
#85 = CIRCLE ( 'NONE', #121, 6.000000000000000888 ) ;
#86 = DIRECTION ( 'NONE',  ( -0.000000000000000000, -0.000000000000000000, -1.000000000000000000 ) ) ;
#87 = CARTESIAN_POINT ( 'NONE',  ( -3.299999999999999822, 4.041334437186265510E-16, 4.999999999999998224 ) ) ;
#88 = CARTESIAN_POINT ( 'NONE',  ( -6.000000000000000888, 0.000000000000000000, 5.000000000000000000 ) ) ;
#89 = ORIENTED_EDGE ( 'NONE', *, *, #27, .F. ) ;
#90 = CC_DESIGN_PERSON_AND_ORGANIZATION_ASSIGNMENT ( #285, #76, ( #29 ) ) ;
#91 = EDGE_LOOP ( 'NONE', ( #145, #45, #60, #242 ) ) ;
#92 = LOCAL_TIME ( 14, 41, 24.00000000000000000, #288 ) ;
#93 = APPLICATION_PROTOCOL_DEFINITION ( 'international standard', 'config_control_design', 1994, #80 ) ;
#94 = ADVANCED_FACE ( 'NONE', ( #225, #106 ), #10, .T. ) ;
#95 = COORDINATED_UNIVERSAL_TIME_OFFSET ( 1, 0, .AHEAD. ) ;
#96 = APPROVAL_DATE_TIME ( #151, #278 ) ;
#97 = FACE_OUTER_BOUND ( 'NONE', #133, .T. ) ;
#98 = PERSON_AND_ORGANIZATION_ROLE ( 'design_supplier' ) ;
#99 = CARTESIAN_POINT ( 'NONE',  ( -3.100000000000000089, 0.000000000000000000, 5.199999999999996625 ) ) ;
#100 = CARTESIAN_POINT ( 'NONE',  ( 6.000000000000000888, 7.347880794884120722E-16, 5.000000000000000000 ) ) ;
#101 = MANIFOLD_SOLID_BREP ( 'Zaoblit1', #289 ) ;
#102 = DATE_AND_TIME ( #291, #137 ) ;
#103 = VERTEX_POINT ( 'NONE', #163 ) ;
#104 = EDGE_CURVE ( 'NONE', #215, #48, #39, .T. ) ;
#105 = AXIS2_PLACEMENT_3D ( 'NONE', #192, #301, #298 ) ;
#106 = FACE_OUTER_BOUND ( 'NONE', #223, .T. ) ;
#107 = CC_DESIGN_PERSON_AND_ORGANIZATION_ASSIGNMENT ( #287, #200, ( #272 ) ) ;
#108 = VERTEX_POINT ( 'NONE', #191 ) ;
#109 = ORIENTED_EDGE ( 'NONE', *, *, #183, .F. ) ;
#110 = TOROIDAL_SURFACE ( 'NONE', #59, 3.299999999999999822, 0.2000000000000000111 ) ;
#111 = CYLINDRICAL_SURFACE ( 'NONE', #78, 6.000000000000000888 ) ;
#112 = CYLINDRICAL_SURFACE ( 'NONE', #61, 6.000000000000000888 ) ;
#113 = CARTESIAN_POINT ( 'NONE',  ( 0.000000000000000000, 0.000000000000000000, 105.0000000000000142 ) ) ;
#114 = SECURITY_CLASSIFICATION ( '', '', #56 ) ;
#115 = ORIENTED_EDGE ( 'NONE', *, *, #160, .T. ) ;
#116 = ORIENTED_EDGE ( 'NONE', *, *, #73, .F. ) ;
#117 = VECTOR ( 'NONE', #162, 1000.000000000000000 ) ;
#118 = APPROVAL_ROLE ( '' ) ;
#119 = VERTEX_POINT ( 'NONE', #88 ) ;
#120 = PERSON_AND_ORGANIZATION_ROLE ( 'design_owner' ) ;
#121 = AXIS2_PLACEMENT_3D ( 'NONE', #126, #150, #199 ) ;
#122 = EDGE_CURVE ( 'NONE', #48, #215, #224, .T. ) ;
#123 = FACE_OUTER_BOUND ( 'NONE', #193, .T. ) ;
#124 = COORDINATED_UNIVERSAL_TIME_OFFSET ( 1, 0, .AHEAD. ) ;
#125 = EDGE_CURVE ( 'NONE', #48, #304, #279, .T. ) ;
#126 = CARTESIAN_POINT ( 'NONE',  ( 0.000000000000000000, 0.000000000000000000, 5.000000000000000000 ) ) ;
#127 = APPROVAL_DATE_TIME ( #34, #128 ) ;
#128 = APPROVAL ( #221, 'NEURÈENÝ' ) ;
#129 = CIRCLE ( 'NONE', #249, 3.100000000000000089 ) ;
#130 = DESIGN_CONTEXT ( 'detailed design', #143, 'design' ) ;
#131 = DATE_AND_TIME ( #246, #305 ) ;
#132 = DIRECTION ( 'NONE',  ( -0.000000000000000000, -0.000000000000000000, -1.000000000000000000 ) ) ;
#133 = EDGE_LOOP ( 'NONE', ( #109, #303 ) ) ;
#134 = EDGE_CURVE ( 'NONE', #304, #201, #174, .T. ) ;
#135 = EDGE_LOOP ( 'NONE', ( #38, #306 ) ) ;
#136 = DIRECTION ( 'NONE',  ( -1.000000000000000000, 1.224646799147353207E-16, 0.000000000000000000 ) ) ;
#137 = LOCAL_TIME ( 14, 41, 24.00000000000000000, #5 ) ;
#138 = ADVANCED_FACE ( 'NONE', ( #232 ), #111, .T. ) ;
#139 = DIRECTION ( 'NONE',  ( 1.000000000000000000, 0.000000000000000000, 0.000000000000000000 ) ) ;
#140 = LINE ( 'NONE', #17, #13 ) ;
#141 = DIRECTION ( 'NONE',  ( 0.000000000000000000, 0.000000000000000000, 1.000000000000000000 ) ) ;
#142 = ORIENTED_EDGE ( 'NONE', *, *, #69, .F. ) ;
#143 = APPLICATION_CONTEXT ( 'configuration controlled 3d designs of mechanical parts and assemblies' ) ;
#144 = CC_DESIGN_APPROVAL ( #278, ( #29 ) ) ;
#145 = ORIENTED_EDGE ( 'NONE', *, *, #160, .F. ) ;
#146 = CIRCLE ( 'NONE', #82, 3.299999999999999822 ) ;
#147 = DIRECTION ( 'NONE',  ( 1.000000000000000000, 0.000000000000000000, 0.000000000000000000 ) ) ;
#148 = ORIENTED_EDGE ( 'NONE', *, *, #104, .T. ) ;
#149 =( GEOMETRIC_REPRESENTATION_CONTEXT ( 3 ) GLOBAL_UNCERTAINTY_ASSIGNED_CONTEXT ( ( #271 ) ) GLOBAL_UNIT_ASSIGNED_CONTEXT ( ( #198, #153, #245 ) ) REPRESENTATION_CONTEXT ( 'NONE', 'WORKASPACE' ) );
#150 = DIRECTION ( 'NONE',  ( 0.000000000000000000, 0.000000000000000000, 1.000000000000000000 ) ) ;
#151 = DATE_AND_TIME ( #53, #92 ) ;
#152 = EDGE_CURVE ( 'NONE', #103, #23, #71, .T. ) ;
#153 =( NAMED_UNIT ( * ) PLANE_ANGLE_UNIT ( ) SI_UNIT ( $, .RADIAN. ) );
#154 = DIRECTION ( 'NONE',  ( 0.000000000000000000, 0.000000000000000000, 1.000000000000000000 ) ) ;
#155 = APPROVAL_STATUS ( 'not_yet_approved' ) ;
#156 = AXIS2_PLACEMENT_3D ( 'NONE', #290, #180, #81 ) ;
#157 = DIRECTION ( 'NONE',  ( 0.000000000000000000, 0.000000000000000000, 1.000000000000000000 ) ) ;
#158 = ADVANCED_FACE ( 'NONE', ( #97 ), #52, .F. ) ;
#159 = EDGE_LOOP ( 'NONE', ( #227, #89, #161, #116 ) ) ;
#160 = EDGE_CURVE ( 'NONE', #263, #238, #269, .T. ) ;
#161 = ORIENTED_EDGE ( 'NONE', *, *, #152, .T. ) ;
#162 = DIRECTION ( 'NONE',  ( -0.000000000000000000, -0.000000000000000000, -1.000000000000000000 ) ) ;
#163 = CARTESIAN_POINT ( 'NONE',  ( 3.100000000000000089, 3.796405077356794918E-16, 5.199999999999996625 ) ) ;
#164 = AXIS2_PLACEMENT_3D ( 'NONE', #184, #251, #84 ) ;
#165 = DIRECTION ( 'NONE',  ( 1.224646799147353207E-16, 1.000000000000000000, -0.000000000000000000 ) ) ;
#166 = FACE_OUTER_BOUND ( 'NONE', #196, .T. ) ;
#167 = ORIENTED_EDGE ( 'NONE', *, *, #239, .F. ) ;
#168 = ORGANIZATION ( 'NEURÈENÝ', 'NEURÈENÝ', '' ) ;
#169 = CIRCLE ( 'NONE', #265, 6.000000000000000888 ) ;
#170 = EDGE_CURVE ( 'NONE', #119, #263, #85, .T. ) ;
#171 = ORIENTED_EDGE ( 'NONE', *, *, #152, .F. ) ;
#172 = DIRECTION ( 'NONE',  ( 0.000000000000000000, 0.000000000000000000, 1.000000000000000000 ) ) ;
#173 = CALENDAR_DATE ( 2022, 7, 7 ) ;
#174 = CIRCLE ( 'NONE', #211, 0.2000000000000000944 ) ;
#175 = CC_DESIGN_DATE_AND_TIME_ASSIGNMENT ( #176, #262, ( #29 ) ) ;
#176 = DATE_AND_TIME ( #77, #66 ) ;
#177 = PLANE ( 'NONE',  #296 ) ;
#178 = APPROVAL_ROLE ( '' ) ;
#179 = CC_DESIGN_APPROVAL ( #212, ( #114 ) ) ;
#180 = DIRECTION ( 'NONE',  ( 0.000000000000000000, 0.000000000000000000, 1.000000000000000000 ) ) ;
#181 = COORDINATED_UNIVERSAL_TIME_OFFSET ( 1, 0, .AHEAD. ) ;
#182 = CIRCLE ( 'NONE', #230, 3.100000000000000089 ) ;
#183 = EDGE_CURVE ( 'NONE', #108, #238, #261, .T. ) ;
#184 = CARTESIAN_POINT ( 'NONE',  ( 0.000000000000000000, 0.000000000000000000, 5.000000000000000000 ) ) ;
#185 = EDGE_CURVE ( 'NONE', #304, #103, #129, .T. ) ;
#186 = CYLINDRICAL_SURFACE ( 'NONE', #194, 3.100000000000000089 ) ;
#187 = LOCAL_TIME ( 14, 41, 24.00000000000000000, #181 ) ;
#188 = FACE_OUTER_BOUND ( 'NONE', #259, .T. ) ;
#189 = DIRECTION ( 'NONE',  ( -1.000000000000000000, 0.000000000000000000, 0.000000000000000000 ) ) ;
#190 = DIRECTION ( 'NONE',  ( -1.000000000000000000, 0.000000000000000000, 0.000000000000000000 ) ) ;
#191 = CARTESIAN_POINT ( 'NONE',  ( -6.000000000000000888, 0.000000000000000000, 0.000000000000000000 ) ) ;
#192 = CARTESIAN_POINT ( 'NONE',  ( 0.000000000000000000, 0.000000000000000000, 5.199999999999996625 ) ) ;
#193 = EDGE_LOOP ( 'NONE', ( #204, #148 ) ) ;
#194 = AXIS2_PLACEMENT_3D ( 'NONE', #231, #62, #205 ) ;
#195 = ADVANCED_FACE ( 'NONE', ( #123 ), #177, .T. ) ;
#196 = EDGE_LOOP ( 'NONE', ( #274, #46, #142, #171 ) ) ;
#197 = ADVANCED_FACE ( 'NONE', ( #241 ), #112, .T. ) ;
#198 =( LENGTH_UNIT ( ) NAMED_UNIT ( * ) SI_UNIT ( .MILLI., .METRE. ) );
#199 = DIRECTION ( 'NONE',  ( 1.000000000000000000, 0.000000000000000000, 0.000000000000000000 ) ) ;
#200 = PERSON_AND_ORGANIZATION_ROLE ( 'creator' ) ;
#201 = VERTEX_POINT ( 'NONE', #87 ) ;
#202 = ADVANCED_BREP_SHAPE_REPRESENTATION ( 'c4df', ( #101, #4 ), #149 ) ;
#203 = CARTESIAN_POINT ( 'NONE',  ( 0.000000000000000000, 0.000000000000000000, 5.000000000000000000 ) ) ;
#204 = ORIENTED_EDGE ( 'NONE', *, *, #122, .T. ) ;
#205 = DIRECTION ( 'NONE',  ( -1.000000000000000000, 0.000000000000000000, 0.000000000000000000 ) ) ;
#206 = AXIS2_PLACEMENT_3D ( 'NONE', #286, #2, #3 ) ;
#207 = DIRECTION ( 'NONE',  ( -0.000000000000000000, -0.000000000000000000, -1.000000000000000000 ) ) ;
#208 = CARTESIAN_POINT ( 'NONE',  ( 0.000000000000000000, 0.000000000000000000, 0.000000000000000000 ) ) ;
#209 = CARTESIAN_POINT ( 'NONE',  ( -3.100000000000000089, 0.000000000000000000, 105.0000000000000142 ) ) ;
#210 = FACE_OUTER_BOUND ( 'NONE', #159, .T. ) ;
#211 = AXIS2_PLACEMENT_3D ( 'NONE', #233, #165, #136 ) ;
#212 = APPROVAL ( #155, 'NEURÈENÝ' ) ;
#213 = ADVANCED_FACE ( 'NONE', ( #210 ), #284, .F. ) ;
#214 = ORIENTED_EDGE ( 'NONE', *, *, #239, .T. ) ;
#215 = VERTEX_POINT ( 'NONE', #43 ) ;
#216 = ORIENTED_EDGE ( 'NONE', *, *, #1, .F. ) ;
#217 = DIRECTION ( 'NONE',  ( -1.000000000000000000, 0.000000000000000000, 0.000000000000000000 ) ) ;
#218 = DIRECTION ( 'NONE',  ( 0.000000000000000000, 0.000000000000000000, -1.000000000000000000 ) ) ;
#219 = APPROVAL_ROLE ( '' ) ;
#220 = CARTESIAN_POINT ( 'NONE',  ( 6.000000000000000888, 7.347880794884120722E-16, 5.000000000000000000 ) ) ;
#221 = APPROVAL_STATUS ( 'not_yet_approved' ) ;
#222 = VECTOR ( 'NONE', #31, 1000.000000000000000 ) ;
#223 = EDGE_LOOP ( 'NONE', ( #68, #281 ) ) ;
#224 = CIRCLE ( 'NONE', #264, 3.100000000000000089 ) ;
#225 = FACE_BOUND ( 'NONE', #135, .T. ) ;
#226 = ADVANCED_FACE ( 'NONE', ( #166 ), #110, .F. ) ;
#227 = ORIENTED_EDGE ( 'NONE', *, *, #134, .F. ) ;
#228 = ORIENTED_EDGE ( 'NONE', *, *, #32, .F. ) ;
#229 = PRODUCT_DEFINITION_SHAPE ( 'NONE', 'NONE',  #29 ) ;
#230 = AXIS2_PLACEMENT_3D ( 'NONE', #275, #157, #250 ) ;
#231 = CARTESIAN_POINT ( 'NONE',  ( 0.000000000000000000, 0.000000000000000000, 105.0000000000000142 ) ) ;
#232 = FACE_OUTER_BOUND ( 'NONE', #237, .T. ) ;
#233 = CARTESIAN_POINT ( 'NONE',  ( -3.299999999999999822, 4.041334437186265510E-16, 5.199999999999996625 ) ) ;
#234 = DIRECTION ( 'NONE',  ( 0.000000000000000000, 0.000000000000000000, 1.000000000000000000 ) ) ;
#235 = DIRECTION ( 'NONE',  ( -0.000000000000000000, -0.000000000000000000, -1.000000000000000000 ) ) ;
#236 = EDGE_CURVE ( 'NONE', #238, #108, #169, .T. ) ;
#237 = EDGE_LOOP ( 'NONE', ( #216, #115, #252, #228 ) ) ;
#238 = VERTEX_POINT ( 'NONE', #280 ) ;
#239 = EDGE_CURVE ( 'NONE', #215, #103, #140, .T. ) ;
#240 = CC_DESIGN_SECURITY_CLASSIFICATION ( #114, ( #272 ) ) ;
#241 = FACE_OUTER_BOUND ( 'NONE', #91, .T. ) ;
#242 = ORIENTED_EDGE ( 'NONE', *, *, #183, .T. ) ;
#243 = CARTESIAN_POINT ( 'NONE',  ( 0.000000000000000000, 0.000000000000000000, 105.0000000000000142 ) ) ;
#244 = PRODUCT_RELATED_PRODUCT_CATEGORY ( 'detail', '', ( #299 ) ) ;
#245 =( NAMED_UNIT ( * ) SI_UNIT ( $, .STERADIAN. ) SOLID_ANGLE_UNIT ( ) );
#246 = CALENDAR_DATE ( 2022, 7, 7 ) ;
#247 = ADVANCED_FACE ( 'NONE', ( #65 ), #79, .T. ) ;
#248 = DATE_TIME_ROLE ( 'classification_date' ) ;
#249 = AXIS2_PLACEMENT_3D ( 'NONE', #55, #154, #147 ) ;
#250 = DIRECTION ( 'NONE',  ( 1.000000000000000000, 0.000000000000000000, 0.000000000000000000 ) ) ;
#251 = DIRECTION ( 'NONE',  ( -0.000000000000000000, -0.000000000000000000, -1.000000000000000000 ) ) ;
#252 = ORIENTED_EDGE ( 'NONE', *, *, #236, .T. ) ;
#253 = AXIS2_PLACEMENT_3D ( 'NONE', #268, #30, #217 ) ;
#254 = LINE ( 'NONE', #63, #117 ) ;
#255 = DIRECTION ( 'NONE',  ( 0.000000000000000000, 0.000000000000000000, 1.000000000000000000 ) ) ;
#256 = CIRCLE ( 'NONE', #273, 6.000000000000000888 ) ;
#257 = DIRECTION ( 'NONE',  ( 1.000000000000000000, 0.000000000000000000, 0.000000000000000000 ) ) ;
#258 = CARTESIAN_POINT ( 'NONE',  ( 0.000000000000000000, 0.000000000000000000, 5.199999999999996625 ) ) ;
#259 = EDGE_LOOP ( 'NONE', ( #167, #70, #40, #282 ) ) ;
#260 = ORIENTED_EDGE ( 'NONE', *, *, #104, .F. ) ;
#261 = CIRCLE ( 'NONE', #156, 6.000000000000000888 ) ;
#262 = DATE_TIME_ROLE ( 'creation_date' ) ;
#263 = VERTEX_POINT ( 'NONE', #220 ) ;
#264 = AXIS2_PLACEMENT_3D ( 'NONE', #113, #41, #257 ) ;
#265 = AXIS2_PLACEMENT_3D ( 'NONE', #208, #141, #277 ) ;
#266 = DIRECTION ( 'NONE',  ( 0.000000000000000000, 0.000000000000000000, 1.000000000000000000 ) ) ;
#267 = APPROVAL_STATUS ( 'not_yet_approved' ) ;
#268 = CARTESIAN_POINT ( 'NONE',  ( 0.000000000000000000, 0.000000000000000000, 105.0000000000000142 ) ) ;
#269 = LINE ( 'NONE', #100, #222 ) ;
#270 = PERSON_AND_ORGANIZATION ( #18, #168 ) ;
#271 = UNCERTAINTY_MEASURE_WITH_UNIT (LENGTH_MEASURE( 1.000000000000000082E-05 ), #198, 'distance_accuracy_value', 'NONE');
#272 = PRODUCT_DEFINITION_FORMATION_WITH_SPECIFIED_SOURCE ( 'LIBOVOLNÝ', '', #299, .NOT_KNOWN. ) ;
#273 = AXIS2_PLACEMENT_3D ( 'NONE', #293, #12, #83 ) ;
#274 = ORIENTED_EDGE ( 'NONE', *, *, #185, .F. ) ;
#275 = CARTESIAN_POINT ( 'NONE',  ( 0.000000000000000000, 0.000000000000000000, 5.199999999999996625 ) ) ;
#276 = DIRECTION ( 'NONE',  ( 1.000000000000000000, 0.000000000000000000, -0.000000000000000000 ) ) ;
#277 = DIRECTION ( 'NONE',  ( 1.000000000000000000, 0.000000000000000000, 0.000000000000000000 ) ) ;
#278 = APPROVAL ( #267, 'NEURÈENÝ' ) ;
#279 = LINE ( 'NONE', #209, #302 ) ;
#280 = CARTESIAN_POINT ( 'NONE',  ( 6.000000000000000888, 7.347880794884120722E-16, 0.000000000000000000 ) ) ;
#281 = ORIENTED_EDGE ( 'NONE', *, *, #1, .T. ) ;
#282 = ORIENTED_EDGE ( 'NONE', *, *, #185, .T. ) ;
#283 = CARTESIAN_POINT ( 'NONE',  ( 0.000000000000000000, 0.000000000000000000, 0.000000000000000000 ) ) ;
#284 = TOROIDAL_SURFACE ( 'NONE', #105, 3.299999999999999822, 0.2000000000000000111 ) ;
#285 = PERSON_AND_ORGANIZATION ( #18, #168 ) ;
#286 = CARTESIAN_POINT ( 'NONE',  ( 0.000000000000000000, 0.000000000000000000, 0.000000000000000000 ) ) ;
#287 = PERSON_AND_ORGANIZATION ( #18, #168 ) ;
#288 = COORDINATED_UNIVERSAL_TIME_OFFSET ( 1, 0, .AHEAD. ) ;
#289 = CLOSED_SHELL ( 'NONE', ( #226, #247, #138, #197, #94, #158, #16, #195, #213 ) ) ;
#290 = CARTESIAN_POINT ( 'NONE',  ( 0.000000000000000000, 0.000000000000000000, 0.000000000000000000 ) ) ;
#291 = CALENDAR_DATE ( 2022, 7, 7 ) ;
#292 = CIRCLE ( 'NONE', #164, 3.299999999999999822 ) ;
#293 = CARTESIAN_POINT ( 'NONE',  ( 0.000000000000000000, 0.000000000000000000, 5.000000000000000000 ) ) ;
#294 = CARTESIAN_POINT ( 'NONE',  ( 3.299999999999999822, 0.000000000000000000, 4.999999999999998224 ) ) ;
#295 = CC_DESIGN_APPROVAL ( #128, ( #272 ) ) ;
#296 = AXIS2_PLACEMENT_3D ( 'NONE', #243, #266, #33 ) ;
#297 = DIRECTION ( 'NONE',  ( 0.000000000000000000, 0.000000000000000000, 1.000000000000000000 ) ) ;
#298 = DIRECTION ( 'NONE',  ( 1.000000000000000000, 0.000000000000000000, 0.000000000000000000 ) ) ;
#299 = PRODUCT ( 'c4df', 'c4df', '', ( #49 ) ) ;
#300 = CARTESIAN_POINT ( 'NONE',  ( 0.000000000000000000, 0.000000000000000000, 5.000000000000000000 ) ) ;
#301 = DIRECTION ( 'NONE',  ( 0.000000000000000000, 0.000000000000000000, 1.000000000000000000 ) ) ;
#302 = VECTOR ( 'NONE', #207, 1000.000000000000000 ) ;
#303 = ORIENTED_EDGE ( 'NONE', *, *, #236, .F. ) ;
#304 = VERTEX_POINT ( 'NONE', #99 ) ;
#305 = LOCAL_TIME ( 14, 41, 24.00000000000000000, #95 ) ;
#306 = ORIENTED_EDGE ( 'NONE', *, *, #73, .T. ) ;
#307 = PERSON_AND_ORGANIZATION ( #18, #168 ) ;
ENDSEC;
END-ISO-10303-21;
