ISO-10303-21;
HEADER;
FILE_DESCRIPTION (( 'STEP AP203' ),
    '1' );
FILE_NAME ('86d3.STEP',
    '2022-07-07T12:59:08',
    ( '' ),
    ( '' ),
    'SwSTEP 2.0',
    'SolidWorks 2019',
    '' );
FILE_SCHEMA (( 'CONFIG_CONTROL_DESIGN' ));
ENDSEC;

DATA;
#1 = APPROVAL_STATUS ( 'not_yet_approved' ) ;
#2 = CARTESIAN_POINT ( 'NONE',  ( 0.000000000000000000, 0.000000000000000000, 2.199999999999993516 ) ) ;
#3 = DIRECTION ( 'NONE',  ( -1.000000000000000000, 1.224646799147351975E-16, 0.000000000000000000 ) ) ;
#4 = FACE_BOUND ( 'NONE', #103, .T. ) ;
#5 = VECTOR ( 'NONE', #46, 1000.000000000000000 ) ;
#6 = VERTEX_POINT ( 'NONE', #183 ) ;
#7 = APPROVAL_STATUS ( 'not_yet_approved' ) ;
#8 = CC_DESIGN_APPROVAL ( #62, ( #114 ) ) ;
#9 = CALENDAR_DATE ( 2022, 7, 7 ) ;
#10 = CARTESIAN_POINT ( 'NONE',  ( -1.200000000000000178, 1.469576158976823799E-16, 1.999999999999996669 ) ) ;
#11 = ORIENTED_EDGE ( 'NONE', *, *, #245, .F. ) ;
#12 = PERSON_AND_ORGANIZATION ( #191, #217 ) ;
#13 = ADVANCED_FACE ( 'NONE', ( #156 ), #23, .F. ) ;
#14 = EDGE_LOOP ( 'NONE', ( #296, #297 ) ) ;
#15 = DIRECTION ( 'NONE',  ( 0.000000000000000000, 0.000000000000000000, 1.000000000000000000 ) ) ;
#16 = APPLICATION_CONTEXT ( 'configuration controlled 3d designs of mechanical parts and assemblies' ) ;
#17 = AXIS2_PLACEMENT_3D ( 'NONE', #140, #166, #207 ) ;
#18 = DIRECTION ( 'NONE',  ( 0.000000000000000000, 0.000000000000000000, 1.000000000000000000 ) ) ;
#19 = CC_DESIGN_APPROVAL ( #130, ( #293 ) ) ;
#20 = APPROVAL_ROLE ( '' ) ;
#21 = CARTESIAN_POINT ( 'NONE',  ( -2.000000000000000000, 0.000000000000000000, 0.000000000000000000 ) ) ;
#22 = FACE_OUTER_BOUND ( 'NONE', #147, .T. ) ;
#23 = TOROIDAL_SURFACE ( 'NONE', #272, 1.200000000000000178, 0.2000000000000000111 ) ;
#24 = CARTESIAN_POINT ( 'NONE',  ( -2.000000000000000000, 0.000000000000000000, 2.000000000000000000 ) ) ;
#25 = PERSON_AND_ORGANIZATION ( #191, #217 ) ;
#26 = CARTESIAN_POINT ( 'NONE',  ( 0.000000000000000000, 0.000000000000000000, 2.000000000000000000 ) ) ;
#27 = EDGE_CURVE ( 'NONE', #78, #173, #278, .T. ) ;
#28 = DIRECTION ( 'NONE',  ( 1.000000000000000000, 0.000000000000000000, 0.000000000000000000 ) ) ;
#29 = FACE_OUTER_BOUND ( 'NONE', #37, .T. ) ;
#30 = AXIS2_PLACEMENT_3D ( 'NONE', #301, #109, #177 ) ;
#31 = LOCAL_TIME ( 14, 59, 8.000000000000000000, #266 ) ;
#32 = ORIENTED_EDGE ( 'NONE', *, *, #48, .T. ) ;
#33 = ORIENTED_EDGE ( 'NONE', *, *, #34, .T. ) ;
#34 = EDGE_CURVE ( 'NONE', #173, #225, #146, .T. ) ;
#35 = ORIENTED_EDGE ( 'NONE', *, *, #165, .F. ) ;
#36 = TOROIDAL_SURFACE ( 'NONE', #204, 1.200000000000000178, 0.2000000000000000111 ) ;
#37 = EDGE_LOOP ( 'NONE', ( #282, #273, #270, #33 ) ) ;
#38 = EDGE_CURVE ( 'NONE', #6, #159, #261, .T. ) ;
#39 = ORIENTED_EDGE ( 'NONE', *, *, #27, .F. ) ;
#40 = DATE_AND_TIME ( #178, #257 ) ;
#41 = APPROVAL ( #1, 'NEURÈENÝ' ) ;
#42 = DIRECTION ( 'NONE',  ( 0.000000000000000000, -1.000000000000000000, 0.000000000000000000 ) ) ;
#43 = SHAPE_DEFINITION_REPRESENTATION ( #116, #151 ) ;
#44 = AXIS2_PLACEMENT_3D ( 'NONE', #274, #283, #304 ) ;
#45 = LINE ( 'NONE', #135, #200 ) ;
#46 = DIRECTION ( 'NONE',  ( -0.000000000000000000, -0.000000000000000000, -1.000000000000000000 ) ) ;
#47 = EDGE_LOOP ( 'NONE', ( #128, #152, #291, #59 ) ) ;
#48 = EDGE_CURVE ( 'NONE', #194, #79, #63, .T. ) ;
#49 = CARTESIAN_POINT ( 'NONE',  ( 0.000000000000000000, 0.000000000000000000, 0.000000000000000000 ) ) ;
#50 = EDGE_CURVE ( 'NONE', #159, #149, #142, .T. ) ;
#51 = PLANE ( 'NONE',  #17 ) ;
#52 = APPLICATION_PROTOCOL_DEFINITION ( 'international standard', 'config_control_design', 1994, #305 ) ;
#53 = AXIS2_PLACEMENT_3D ( 'NONE', #71, #186, #95 ) ;
#54 =( NAMED_UNIT ( * ) PLANE_ANGLE_UNIT ( ) SI_UNIT ( $, .RADIAN. ) );
#55 = CARTESIAN_POINT ( 'NONE',  ( 0.000000000000000000, 0.000000000000000000, 102.0000000000000142 ) ) ;
#56 = ORIENTED_EDGE ( 'NONE', *, *, #38, .T. ) ;
#57 = LOCAL_TIME ( 14, 59, 8.000000000000000000, #227 ) ;
#58 = PERSON_AND_ORGANIZATION ( #191, #217 ) ;
#59 = ORIENTED_EDGE ( 'NONE', *, *, #155, .F. ) ;
#60 = DIRECTION ( 'NONE',  ( -0.000000000000000000, -0.000000000000000000, -1.000000000000000000 ) ) ;
#61 = APPROVAL_ROLE ( '' ) ;
#62 = APPROVAL ( #195, 'NEURÈENÝ' ) ;
#63 = LINE ( 'NONE', #253, #5 ) ;
#64 = DIRECTION ( 'NONE',  ( 0.000000000000000000, 0.000000000000000000, 1.000000000000000000 ) ) ;
#65 = CARTESIAN_POINT ( 'NONE',  ( 0.000000000000000000, 0.000000000000000000, 2.000000000000000000 ) ) ;
#66 = DIRECTION ( 'NONE',  ( 1.000000000000000000, 0.000000000000000000, 0.000000000000000000 ) ) ;
#67 = DIRECTION ( 'NONE',  ( 0.000000000000000000, 0.000000000000000000, -1.000000000000000000 ) ) ;
#68 = CC_DESIGN_DATE_AND_TIME_ASSIGNMENT ( #254, #169, ( #293 ) ) ;
#69 = PERSON_AND_ORGANIZATION ( #191, #217 ) ;
#70 = COORDINATED_UNIVERSAL_TIME_OFFSET ( 1, 0, .AHEAD. ) ;
#71 = CARTESIAN_POINT ( 'NONE',  ( 0.000000000000000000, 0.000000000000000000, 2.000000000000000000 ) ) ;
#72 = DIRECTION ( 'NONE',  ( 1.000000000000000000, 0.000000000000000000, 0.000000000000000000 ) ) ;
#73 = SECURITY_CLASSIFICATION_LEVEL ( 'unclassified' ) ;
#74 = ORIENTED_EDGE ( 'NONE', *, *, #48, .F. ) ;
#75 = EDGE_CURVE ( 'NONE', #78, #127, #221, .T. ) ;
#76 = AXIS2_PLACEMENT_3D ( 'NONE', #26, #189, #286 ) ;
#77 = APPROVAL_PERSON_ORGANIZATION ( #69, #41, #187 ) ;
#78 = VERTEX_POINT ( 'NONE', #24 ) ;
#79 = VERTEX_POINT ( 'NONE', #226 ) ;
#80 = ORIENTED_EDGE ( 'NONE', *, *, #155, .T. ) ;
#81 = COORDINATED_UNIVERSAL_TIME_OFFSET ( 1, 0, .AHEAD. ) ;
#82 = DIRECTION ( 'NONE',  ( 1.000000000000000000, 0.000000000000000000, 0.000000000000000000 ) ) ;
#83 = DATE_TIME_ROLE ( 'creation_date' ) ;
#84 = CARTESIAN_POINT ( 'NONE',  ( 0.000000000000000000, 0.000000000000000000, 2.000000000000000000 ) ) ;
#85 = ADVANCED_FACE ( 'NONE', ( #260 ), #111, .T. ) ;
#86 = DIRECTION ( 'NONE',  ( -0.000000000000000000, -0.000000000000000000, -1.000000000000000000 ) ) ;
#87 = AXIS2_PLACEMENT_3D ( 'NONE', #235, #181, #201 ) ;
#88 = CARTESIAN_POINT ( 'NONE',  ( 0.000000000000000000, 0.000000000000000000, 2.000000000000000000 ) ) ;
#89 = CARTESIAN_POINT ( 'NONE',  ( 0.000000000000000000, 0.000000000000000000, 2.199999999999993516 ) ) ;
#90 = APPLICATION_PROTOCOL_DEFINITION ( 'international standard', 'config_control_design', 1994, #16 ) ;
#91 = PRODUCT_DEFINITION ( 'NEZNÁMÝ', '', #114, #193 ) ;
#92 = CARTESIAN_POINT ( 'NONE',  ( 0.000000000000000000, 0.000000000000000000, 0.000000000000000000 ) ) ;
#93 = DIRECTION ( 'NONE',  ( 0.000000000000000000, 0.000000000000000000, 1.000000000000000000 ) ) ;
#94 = CIRCLE ( 'NONE', #267, 1.000000000000000000 ) ;
#95 = DIRECTION ( 'NONE',  ( -1.000000000000000000, 0.000000000000000000, 0.000000000000000000 ) ) ;
#96 = EDGE_CURVE ( 'NONE', #127, #78, #174, .T. ) ;
#97 = CC_DESIGN_DATE_AND_TIME_ASSIGNMENT ( #40, #83, ( #91 ) ) ;
#98 = VECTOR ( 'NONE', #60, 1000.000000000000000 ) ;
#99 = ORIENTED_EDGE ( 'NONE', *, *, #276, .F. ) ;
#100 = MANIFOLD_SOLID_BREP ( 'Zaoblit1', #242 ) ;
#101 = APPROVAL_PERSON_ORGANIZATION ( #12, #62, #61 ) ;
#102 = ORIENTED_EDGE ( 'NONE', *, *, #243, .T. ) ;
#103 = EDGE_LOOP ( 'NONE', ( #250, #80 ) ) ;
#104 = CALENDAR_DATE ( 2022, 7, 7 ) ;
#105 = DIRECTION ( 'NONE',  ( -0.000000000000000000, -0.000000000000000000, -1.000000000000000000 ) ) ;
#106 = CIRCLE ( 'NONE', #228, 1.000000000000000000 ) ;
#107 = DIRECTION ( 'NONE',  ( -0.000000000000000000, -0.000000000000000000, -1.000000000000000000 ) ) ;
#108 = COORDINATED_UNIVERSAL_TIME_OFFSET ( 1, 0, .AHEAD. ) ;
#109 = DIRECTION ( 'NONE',  ( 0.000000000000000000, 0.000000000000000000, 1.000000000000000000 ) ) ;
#110 = CIRCLE ( 'NONE', #299, 1.000000000000000000 ) ;
#111 = CYLINDRICAL_SURFACE ( 'NONE', #249, 2.000000000000000000 ) ;
#112 = FACE_OUTER_BOUND ( 'NONE', #14, .T. ) ;
#113 = CARTESIAN_POINT ( 'NONE',  ( 0.000000000000000000, 0.000000000000000000, 2.000000000000000000 ) ) ;
#114 = PRODUCT_DEFINITION_FORMATION_WITH_SPECIFIED_SOURCE ( 'LIBOVOLNÝ', '', #218, .NOT_KNOWN. ) ;
#115 = EDGE_CURVE ( 'NONE', #225, #173, #285, .T. ) ;
#116 = PRODUCT_DEFINITION_SHAPE ( 'NONE', 'NONE',  #91 ) ;
#117 = CARTESIAN_POINT ( 'NONE',  ( 0.000000000000000000, 0.000000000000000000, 102.0000000000000142 ) ) ;
#118 = CYLINDRICAL_SURFACE ( 'NONE', #53, 2.000000000000000000 ) ;
#119 = CC_DESIGN_PERSON_AND_ORGANIZATION_ASSIGNMENT ( #198, #157, ( #114 ) ) ;
#120 = AXIS2_PLACEMENT_3D ( 'NONE', #65, #107, #205 ) ;
#121 = EDGE_LOOP ( 'NONE', ( #196, #244, #153, #39 ) ) ;
#122 = ORIENTED_EDGE ( 'NONE', *, *, #115, .F. ) ;
#123 = AXIS2_PLACEMENT_3D ( 'NONE', #84, #18, #203 ) ;
#124 = ORIENTED_EDGE ( 'NONE', *, *, #143, .F. ) ;
#125 = APPROVAL_DATE_TIME ( #271, #62 ) ;
#126 = AXIS2_PLACEMENT_3D ( 'NONE', #281, #15, #72 ) ;
#127 = VERTEX_POINT ( 'NONE', #300 ) ;
#128 = ORIENTED_EDGE ( 'NONE', *, *, #289, .F. ) ;
#129 = PERSON_AND_ORGANIZATION_ROLE ( 'classification_officer' ) ;
#130 = APPROVAL ( #7, 'NEURÈENÝ' ) ;
#131 = CARTESIAN_POINT ( 'NONE',  ( 1.200000000000000178, 0.000000000000000000, 2.199999999999993516 ) ) ;
#132 = PERSON_AND_ORGANIZATION ( #191, #217 ) ;
#133 = CIRCLE ( 'NONE', #264, 1.200000000000000178 ) ;
#134 = CC_DESIGN_SECURITY_CLASSIFICATION ( #293, ( #114 ) ) ;
#135 = CARTESIAN_POINT ( 'NONE',  ( 2.000000000000000000, 2.449293598294706414E-16, 2.000000000000000000 ) ) ;
#136 = DIRECTION ( 'NONE',  ( 1.000000000000000000, 0.000000000000000000, 0.000000000000000000 ) ) ;
#137 = CARTESIAN_POINT ( 'NONE',  ( -2.000000000000000000, 0.000000000000000000, 2.000000000000000000 ) ) ;
#138 = VECTOR ( 'NONE', #86, 1000.000000000000000 ) ;
#139 = CARTESIAN_POINT ( 'NONE',  ( 0.000000000000000000, 0.000000000000000000, 102.0000000000000142 ) ) ;
#140 = CARTESIAN_POINT ( 'NONE',  ( 0.000000000000000000, 0.000000000000000000, 102.0000000000000142 ) ) ;
#141 = CALENDAR_DATE ( 2022, 7, 7 ) ;
#142 = CIRCLE ( 'NONE', #182, 0.2000000000000000944 ) ;
#143 = EDGE_CURVE ( 'NONE', #6, #194, #110, .T. ) ;
#144 = DIRECTION ( 'NONE',  ( 1.000000000000000000, 0.000000000000000000, 0.000000000000000000 ) ) ;
#145 = DIRECTION ( 'NONE',  ( -0.000000000000000000, -0.000000000000000000, -1.000000000000000000 ) ) ;
#146 = CIRCLE ( 'NONE', #44, 2.000000000000000000 ) ;
#147 = EDGE_LOOP ( 'NONE', ( #172, #122 ) ) ;
#148 = AXIS2_PLACEMENT_3D ( 'NONE', #211, #284, #3 ) ;
#149 = VERTEX_POINT ( 'NONE', #233 ) ;
#150 = APPROVAL_DATE_TIME ( #269, #41 ) ;
#151 = ADVANCED_BREP_SHAPE_REPRESENTATION ( '86d3', ( #100, #268 ), #176 ) ;
#152 = ORIENTED_EDGE ( 'NONE', *, *, #243, .F. ) ;
#153 = ORIENTED_EDGE ( 'NONE', *, *, #115, .T. ) ;
#154 = APPROVAL_DATE_TIME ( #220, #130 ) ;
#155 = EDGE_CURVE ( 'NONE', #246, #149, #216, .T. ) ;
#156 = FACE_OUTER_BOUND ( 'NONE', #47, .T. ) ;
#157 = PERSON_AND_ORGANIZATION_ROLE ( 'creator' ) ;
#158 = PLANE ( 'NONE',  #30 ) ;
#159 = VERTEX_POINT ( 'NONE', #160 ) ;
#160 = CARTESIAN_POINT ( 'NONE',  ( 1.000000000000000000, 1.224646799147353207E-16, 2.199999999999993516 ) ) ;
#161 = MECHANICAL_CONTEXT ( 'NONE', #16, 'mechanical' ) ;
#162 = DIRECTION ( 'NONE',  ( 1.000000000000000000, 0.000000000000000000, 0.000000000000000000 ) ) ;
#163 = CARTESIAN_POINT ( 'NONE',  ( 2.000000000000000000, 2.449293598294706414E-16, 0.000000000000000000 ) ) ;
#164 = CARTESIAN_POINT ( 'NONE',  ( 0.000000000000000000, 0.000000000000000000, 2.199999999999993516 ) ) ;
#165 = EDGE_CURVE ( 'NONE', #194, #6, #106, .T. ) ;
#166 = DIRECTION ( 'NONE',  ( 0.000000000000000000, 0.000000000000000000, 1.000000000000000000 ) ) ;
#167 = ADVANCED_FACE ( 'NONE', ( #22 ), #158, .F. ) ;
#168 = DIRECTION ( 'NONE',  ( 0.000000000000000000, 0.000000000000000000, 1.000000000000000000 ) ) ;
#169 = DATE_TIME_ROLE ( 'classification_date' ) ;
#170 = EDGE_LOOP ( 'NONE', ( #252, #192 ) ) ;
#171 = EDGE_CURVE ( 'NONE', #127, #225, #45, .T. ) ;
#172 = ORIENTED_EDGE ( 'NONE', *, *, #34, .F. ) ;
#173 = VERTEX_POINT ( 'NONE', #21 ) ;
#174 = CIRCLE ( 'NONE', #123, 2.000000000000000000 ) ;
#175 = EDGE_LOOP ( 'NONE', ( #184, #35, #32, #197 ) ) ;
#176 =( GEOMETRIC_REPRESENTATION_CONTEXT ( 3 ) GLOBAL_UNCERTAINTY_ASSIGNED_CONTEXT ( ( #292 ) ) GLOBAL_UNIT_ASSIGNED_CONTEXT ( ( #240, #54, #238 ) ) REPRESENTATION_CONTEXT ( 'NONE', 'WORKASPACE' ) );
#177 = DIRECTION ( 'NONE',  ( 1.000000000000000000, 0.000000000000000000, -0.000000000000000000 ) ) ;
#178 = CALENDAR_DATE ( 2022, 7, 7 ) ;
#179 = ADVANCED_FACE ( 'NONE', ( #202 ), #302, .T. ) ;
#180 = DIRECTION ( 'NONE',  ( -1.000000000000000000, 0.000000000000000000, 0.000000000000000000 ) ) ;
#181 = DIRECTION ( 'NONE',  ( 0.000000000000000000, 0.000000000000000000, 1.000000000000000000 ) ) ;
#182 = AXIS2_PLACEMENT_3D ( 'NONE', #131, #42, #67 ) ;
#183 = CARTESIAN_POINT ( 'NONE',  ( 1.000000000000000000, 1.224646799147353207E-16, 102.0000000000000142 ) ) ;
#184 = ORIENTED_EDGE ( 'NONE', *, *, #38, .F. ) ;
#185 = PERSON_AND_ORGANIZATION_ROLE ( 'design_owner' ) ;
#186 = DIRECTION ( 'NONE',  ( -0.000000000000000000, -0.000000000000000000, -1.000000000000000000 ) ) ;
#187 = APPROVAL_ROLE ( '' ) ;
#188 = CC_DESIGN_APPROVAL ( #41, ( #91 ) ) ;
#189 = DIRECTION ( 'NONE',  ( 0.000000000000000000, 0.000000000000000000, 1.000000000000000000 ) ) ;
#190 = DIRECTION ( 'NONE',  ( 0.000000000000000000, 0.000000000000000000, 1.000000000000000000 ) ) ;
#191 = PERSON ( 'NEURÈENÝ', 'NEURÈENÝ', 'NEURÈENÝ', ('NEURÈENÝ'), ('NEURÈENÝ'), ('NEURÈENÝ') ) ;
#192 = ORIENTED_EDGE ( 'NONE', *, *, #143, .T. ) ;
#193 = DESIGN_CONTEXT ( 'detailed design', #305, 'design' ) ;
#194 = VERTEX_POINT ( 'NONE', #241 ) ;
#195 = APPROVAL_STATUS ( 'not_yet_approved' ) ;
#196 = ORIENTED_EDGE ( 'NONE', *, *, #96, .F. ) ;
#197 = ORIENTED_EDGE ( 'NONE', *, *, #276, .T. ) ;
#198 = PERSON_AND_ORGANIZATION ( #191, #217 ) ;
#199 = CARTESIAN_POINT ( 'NONE',  ( 1.000000000000000000, 1.224646799147353207E-16, 102.0000000000000142 ) ) ;
#200 = VECTOR ( 'NONE', #230, 1000.000000000000000 ) ;
#201 = DIRECTION ( 'NONE',  ( 1.000000000000000000, 0.000000000000000000, 0.000000000000000000 ) ) ;
#202 = FACE_OUTER_BOUND ( 'NONE', #294, .T. ) ;
#203 = DIRECTION ( 'NONE',  ( 1.000000000000000000, 0.000000000000000000, 0.000000000000000000 ) ) ;
#204 = AXIS2_PLACEMENT_3D ( 'NONE', #164, #168, #144 ) ;
#205 = DIRECTION ( 'NONE',  ( 1.000000000000000000, 0.000000000000000000, 0.000000000000000000 ) ) ;
#206 = ADVANCED_FACE ( 'NONE', ( #29 ), #118, .T. ) ;
#207 = DIRECTION ( 'NONE',  ( 1.000000000000000000, 0.000000000000000000, -0.000000000000000000 ) ) ;
#208 = ADVANCED_FACE ( 'NONE', ( #214 ), #307, .T. ) ;
#209 = CIRCLE ( 'NONE', #148, 0.2000000000000000944 ) ;
#210 = DIRECTION ( 'NONE',  ( -0.000000000000000000, -0.000000000000000000, -1.000000000000000000 ) ) ;
#211 = CARTESIAN_POINT ( 'NONE',  ( -1.200000000000000178, 1.469576158976823799E-16, 2.199999999999993516 ) ) ;
#212 = DIRECTION ( 'NONE',  ( -1.000000000000000000, 0.000000000000000000, 0.000000000000000000 ) ) ;
#213 = FACE_OUTER_BOUND ( 'NONE', #247, .T. ) ;
#214 = FACE_OUTER_BOUND ( 'NONE', #175, .T. ) ;
#215 = ADVANCED_FACE ( 'NONE', ( #4, #112 ), #263, .T. ) ;
#216 = CIRCLE ( 'NONE', #120, 1.200000000000000178 ) ;
#217 = ORGANIZATION ( 'NEURÈENÝ', 'NEURÈENÝ', '' ) ;
#218 = PRODUCT ( '86d3', '86d3', '', ( #161 ) ) ;
#219 = ORIENTED_EDGE ( 'NONE', *, *, #289, .T. ) ;
#220 = DATE_AND_TIME ( #9, #265 ) ;
#221 = CIRCLE ( 'NONE', #87, 2.000000000000000000 ) ;
#222 = AXIS2_PLACEMENT_3D ( 'NONE', #55, #288, #212 ) ;
#223 = CALENDAR_DATE ( 2022, 7, 7 ) ;
#224 = ORIENTED_EDGE ( 'NONE', *, *, #50, .F. ) ;
#225 = VERTEX_POINT ( 'NONE', #163 ) ;
#226 = CARTESIAN_POINT ( 'NONE',  ( -1.000000000000000000, 0.000000000000000000, 2.199999999999993516 ) ) ;
#227 = COORDINATED_UNIVERSAL_TIME_OFFSET ( 1, 0, .AHEAD. ) ;
#228 = AXIS2_PLACEMENT_3D ( 'NONE', #306, #64, #82 ) ;
#229 = APPROVAL_PERSON_ORGANIZATION ( #248, #130, #20 ) ;
#230 = DIRECTION ( 'NONE',  ( -0.000000000000000000, -0.000000000000000000, -1.000000000000000000 ) ) ;
#231 = ADVANCED_FACE ( 'NONE', ( #262 ), #51, .T. ) ;
#232 = PRODUCT_RELATED_PRODUCT_CATEGORY ( 'detail', '', ( #218 ) ) ;
#233 = CARTESIAN_POINT ( 'NONE',  ( 1.200000000000000178, 0.000000000000000000, 1.999999999999996669 ) ) ;
#234 = CC_DESIGN_PERSON_AND_ORGANIZATION_ASSIGNMENT ( #251, #275, ( #91 ) ) ;
#235 = CARTESIAN_POINT ( 'NONE',  ( 0.000000000000000000, 0.000000000000000000, 2.000000000000000000 ) ) ;
#236 = CC_DESIGN_PERSON_AND_ORGANIZATION_ASSIGNMENT ( #58, #129, ( #293 ) ) ;
#237 = DIRECTION ( 'NONE',  ( 0.000000000000000000, 0.000000000000000000, 1.000000000000000000 ) ) ;
#238 =( NAMED_UNIT ( * ) SI_UNIT ( $, .STERADIAN. ) SOLID_ANGLE_UNIT ( ) );
#239 = DIRECTION ( 'NONE',  ( -1.000000000000000000, 0.000000000000000000, 0.000000000000000000 ) ) ;
#240 =( LENGTH_UNIT ( ) NAMED_UNIT ( * ) SI_UNIT ( .MILLI., .METRE. ) );
#241 = CARTESIAN_POINT ( 'NONE',  ( -1.000000000000000000, 0.000000000000000000, 102.0000000000000142 ) ) ;
#242 = CLOSED_SHELL ( 'NONE', ( #287, #179, #85, #206, #215, #167, #208, #231, #13 ) ) ;
#243 = EDGE_CURVE ( 'NONE', #159, #79, #94, .T. ) ;
#244 = ORIENTED_EDGE ( 'NONE', *, *, #171, .T. ) ;
#245 = EDGE_CURVE ( 'NONE', #149, #246, #133, .T. ) ;
#246 = VERTEX_POINT ( 'NONE', #10 ) ;
#247 = EDGE_LOOP ( 'NONE', ( #99, #219, #11, #224 ) ) ;
#248 = PERSON_AND_ORGANIZATION ( #191, #217 ) ;
#249 = AXIS2_PLACEMENT_3D ( 'NONE', #88, #105, #180 ) ;
#250 = ORIENTED_EDGE ( 'NONE', *, *, #245, .T. ) ;
#251 = PERSON_AND_ORGANIZATION ( #191, #217 ) ;
#252 = ORIENTED_EDGE ( 'NONE', *, *, #165, .T. ) ;
#253 = CARTESIAN_POINT ( 'NONE',  ( -1.000000000000000000, 0.000000000000000000, 102.0000000000000142 ) ) ;
#254 = DATE_AND_TIME ( #223, #57 ) ;
#255 = DIRECTION ( 'NONE',  ( 0.000000000000000000, 0.000000000000000000, 1.000000000000000000 ) ) ;
#256 = CIRCLE ( 'NONE', #126, 1.000000000000000000 ) ;
#257 = LOCAL_TIME ( 14, 59, 8.000000000000000000, #81 ) ;
#258 = DIRECTION ( 'NONE',  ( 0.000000000000000000, 0.000000000000000000, 1.000000000000000000 ) ) ;
#259 = CC_DESIGN_PERSON_AND_ORGANIZATION_ASSIGNMENT ( #25, #185, ( #218 ) ) ;
#260 = FACE_OUTER_BOUND ( 'NONE', #121, .T. ) ;
#261 = LINE ( 'NONE', #199, #138 ) ;
#262 = FACE_OUTER_BOUND ( 'NONE', #170, .T. ) ;
#263 = PLANE ( 'NONE',  #76 ) ;
#264 = AXIS2_PLACEMENT_3D ( 'NONE', #113, #210, #295 ) ;
#265 = LOCAL_TIME ( 14, 59, 8.000000000000000000, #108 ) ;
#266 = COORDINATED_UNIVERSAL_TIME_OFFSET ( 1, 0, .AHEAD. ) ;
#267 = AXIS2_PLACEMENT_3D ( 'NONE', #2, #93, #28 ) ;
#268 = AXIS2_PLACEMENT_3D ( 'NONE', #92, #190, #66 ) ;
#269 = DATE_AND_TIME ( #141, #280 ) ;
#270 = ORIENTED_EDGE ( 'NONE', *, *, #27, .T. ) ;
#271 = DATE_AND_TIME ( #104, #31 ) ;
#272 = AXIS2_PLACEMENT_3D ( 'NONE', #89, #258, #277 ) ;
#273 = ORIENTED_EDGE ( 'NONE', *, *, #75, .F. ) ;
#274 = CARTESIAN_POINT ( 'NONE',  ( 0.000000000000000000, 0.000000000000000000, 0.000000000000000000 ) ) ;
#275 = PERSON_AND_ORGANIZATION_ROLE ( 'creator' ) ;
#276 = EDGE_CURVE ( 'NONE', #79, #159, #256, .T. ) ;
#277 = DIRECTION ( 'NONE',  ( 1.000000000000000000, 0.000000000000000000, 0.000000000000000000 ) ) ;
#278 = LINE ( 'NONE', #137, #98 ) ;
#279 = AXIS2_PLACEMENT_3D ( 'NONE', #117, #145, #239 ) ;
#280 = LOCAL_TIME ( 14, 59, 8.000000000000000000, #70 ) ;
#281 = CARTESIAN_POINT ( 'NONE',  ( 0.000000000000000000, 0.000000000000000000, 2.199999999999993516 ) ) ;
#282 = ORIENTED_EDGE ( 'NONE', *, *, #171, .F. ) ;
#283 = DIRECTION ( 'NONE',  ( 0.000000000000000000, 0.000000000000000000, 1.000000000000000000 ) ) ;
#284 = DIRECTION ( 'NONE',  ( 1.224646799147353207E-16, 1.000000000000000000, -0.000000000000000000 ) ) ;
#285 = CIRCLE ( 'NONE', #303, 2.000000000000000000 ) ;
#286 = DIRECTION ( 'NONE',  ( 1.000000000000000000, 0.000000000000000000, -0.000000000000000000 ) ) ;
#287 = ADVANCED_FACE ( 'NONE', ( #213 ), #36, .F. ) ;
#288 = DIRECTION ( 'NONE',  ( -0.000000000000000000, -0.000000000000000000, -1.000000000000000000 ) ) ;
#289 = EDGE_CURVE ( 'NONE', #79, #246, #209, .T. ) ;
#290 = CC_DESIGN_PERSON_AND_ORGANIZATION_ASSIGNMENT ( #132, #298, ( #114 ) ) ;
#291 = ORIENTED_EDGE ( 'NONE', *, *, #50, .T. ) ;
#292 = UNCERTAINTY_MEASURE_WITH_UNIT (LENGTH_MEASURE( 1.000000000000000082E-05 ), #240, 'distance_accuracy_value', 'NONE');
#293 = SECURITY_CLASSIFICATION ( '', '', #73 ) ;
#294 = EDGE_LOOP ( 'NONE', ( #124, #56, #102, #74 ) ) ;
#295 = DIRECTION ( 'NONE',  ( 1.000000000000000000, 0.000000000000000000, 0.000000000000000000 ) ) ;
#296 = ORIENTED_EDGE ( 'NONE', *, *, #75, .T. ) ;
#297 = ORIENTED_EDGE ( 'NONE', *, *, #96, .T. ) ;
#298 = PERSON_AND_ORGANIZATION_ROLE ( 'design_supplier' ) ;
#299 = AXIS2_PLACEMENT_3D ( 'NONE', #139, #237, #136 ) ;
#300 = CARTESIAN_POINT ( 'NONE',  ( 2.000000000000000000, 2.449293598294706414E-16, 2.000000000000000000 ) ) ;
#301 = CARTESIAN_POINT ( 'NONE',  ( 0.000000000000000000, 0.000000000000000000, 0.000000000000000000 ) ) ;
#302 = CYLINDRICAL_SURFACE ( 'NONE', #279, 1.000000000000000000 ) ;
#303 = AXIS2_PLACEMENT_3D ( 'NONE', #49, #255, #162 ) ;
#304 = DIRECTION ( 'NONE',  ( 1.000000000000000000, 0.000000000000000000, 0.000000000000000000 ) ) ;
#305 = APPLICATION_CONTEXT ( 'configuration controlled 3d designs of mechanical parts and assemblies' ) ;
#306 = CARTESIAN_POINT ( 'NONE',  ( 0.000000000000000000, 0.000000000000000000, 102.0000000000000142 ) ) ;
#307 = CYLINDRICAL_SURFACE ( 'NONE', #222, 1.000000000000000000 ) ;
ENDSEC;
END-ISO-10303-21;
