ISO-10303-21;
HEADER;
FILE_DESCRIPTION (( 'STEP AP203' ),
    '1' );
FILE_NAME ('0fb2.STEP',
    '2022-07-07T12:48:27',
    ( '' ),
    ( '' ),
    'SwSTEP 2.0',
    'SolidWorks 2019',
    '' );
FILE_SCHEMA (( 'CONFIG_CONTROL_DESIGN' ));
ENDSEC;

DATA;
#1 = AXIS2_PLACEMENT_3D ( 'NONE', #201, #270, #155 ) ;
#2 = DIRECTION ( 'NONE',  ( 0.000000000000000000, 0.000000000000000000, 1.000000000000000000 ) ) ;
#3 = EDGE_CURVE ( 'NONE', #238, #33, #209, .T. ) ;
#4 = ORIENTED_EDGE ( 'NONE', *, *, #75, .T. ) ;
#5 = CARTESIAN_POINT ( 'NONE',  ( -4.000000000000000000, 0.000000000000000000, 0.000000000000000000 ) ) ;
#6 = AXIS2_PLACEMENT_3D ( 'NONE', #280, #187, #231 ) ;
#7 = APPROVAL_PERSON_ORGANIZATION ( #221, #176, #225 ) ;
#8 = DIRECTION ( 'NONE',  ( 1.000000000000000000, 0.000000000000000000, 0.000000000000000000 ) ) ;
#9 = VERTEX_POINT ( 'NONE', #5 ) ;
#10 = VERTEX_POINT ( 'NONE', #147 ) ;
#11 = AXIS2_PLACEMENT_3D ( 'NONE', #79, #267, #58 ) ;
#12 = CARTESIAN_POINT ( 'NONE',  ( 0.000000000000000000, 0.000000000000000000, 3.199999999999994404 ) ) ;
#13 = UNCERTAINTY_MEASURE_WITH_UNIT (LENGTH_MEASURE( 1.000000000000000082E-05 ), #165, 'distance_accuracy_value', 'NONE');
#14 = AXIS2_PLACEMENT_3D ( 'NONE', #86, #177, #153 ) ;
#15 = ORIENTED_EDGE ( 'NONE', *, *, #25, .T. ) ;
#16 = CARTESIAN_POINT ( 'NONE',  ( 0.000000000000000000, 0.000000000000000000, 3.000000000000000000 ) ) ;
#17 = DIRECTION ( 'NONE',  ( 0.000000000000000000, 0.000000000000000000, 1.000000000000000000 ) ) ;
#18 = DATE_AND_TIME ( #89, #242 ) ;
#19 = AXIS2_PLACEMENT_3D ( 'NONE', #34, #2, #146 ) ;
#20 = FACE_OUTER_BOUND ( 'NONE', #150, .T. ) ;
#21 = SECURITY_CLASSIFICATION_LEVEL ( 'unclassified' ) ;
#22 = CARTESIAN_POINT ( 'NONE',  ( 2.250000000000000000, 2.755455298081544285E-16, 128.0000000000000000 ) ) ;
#23 = CIRCLE ( 'NONE', #263, 2.250000000000000000 ) ;
#24 = CC_DESIGN_APPROVAL ( #102, ( #230 ) ) ;
#25 = EDGE_CURVE ( 'NONE', #241, #9, #229, .T. ) ;
#26 = DIRECTION ( 'NONE',  ( -0.000000000000000000, -0.000000000000000000, -1.000000000000000000 ) ) ;
#27 = CARTESIAN_POINT ( 'NONE',  ( 0.000000000000000000, 0.000000000000000000, 0.000000000000000000 ) ) ;
#28 =( GEOMETRIC_REPRESENTATION_CONTEXT ( 3 ) GLOBAL_UNCERTAINTY_ASSIGNED_CONTEXT ( ( #13 ) ) GLOBAL_UNIT_ASSIGNED_CONTEXT ( ( #165, #98, #281 ) ) REPRESENTATION_CONTEXT ( 'NONE', 'WORKASPACE' ) );
#29 = ORIENTED_EDGE ( 'NONE', *, *, #282, .F. ) ;
#30 = EDGE_LOOP ( 'NONE', ( #151, #290, #248, #104 ) ) ;
#31 = CARTESIAN_POINT ( 'NONE',  ( 4.000000000000000000, 4.898587196589412829E-16, 3.000000000000000000 ) ) ;
#32 = ORIENTED_EDGE ( 'NONE', *, *, #292, .T. ) ;
#33 = VERTEX_POINT ( 'NONE', #239 ) ;
#34 = CARTESIAN_POINT ( 'NONE',  ( 0.000000000000000000, 0.000000000000000000, 128.0000000000000000 ) ) ;
#35 = AXIS2_PLACEMENT_3D ( 'NONE', #60, #188, #127 ) ;
#36 = ORIENTED_EDGE ( 'NONE', *, *, #81, .T. ) ;
#37 = DIRECTION ( 'NONE',  ( 1.000000000000000000, 0.000000000000000000, 0.000000000000000000 ) ) ;
#38 = CC_DESIGN_PERSON_AND_ORGANIZATION_ASSIGNMENT ( #140, #253, ( #230 ) ) ;
#39 = VERTEX_POINT ( 'NONE', #31 ) ;
#40 = CARTESIAN_POINT ( 'NONE',  ( 0.000000000000000000, 0.000000000000000000, 3.000000000000000000 ) ) ;
#41 = PERSON_AND_ORGANIZATION_ROLE ( 'creator' ) ;
#42 = ORIENTED_EDGE ( 'NONE', *, *, #234, .F. ) ;
#43 = CARTESIAN_POINT ( 'NONE',  ( -4.000000000000000000, 0.000000000000000000, 3.000000000000000000 ) ) ;
#44 = PERSON_AND_ORGANIZATION_ROLE ( 'design_supplier' ) ;
#45 = CIRCLE ( 'NONE', #35, 2.449999999999999734 ) ;
#46 = AXIS2_PLACEMENT_3D ( 'NONE', #90, #88, #134 ) ;
#47 = PERSON_AND_ORGANIZATION ( #162, #204 ) ;
#48 = CIRCLE ( 'NONE', #19, 2.250000000000000000 ) ;
#49 = DIRECTION ( 'NONE',  ( 1.000000000000000000, 0.000000000000000000, 0.000000000000000000 ) ) ;
#50 = DIRECTION ( 'NONE',  ( 1.000000000000000000, 0.000000000000000000, 0.000000000000000000 ) ) ;
#51 = DIRECTION ( 'NONE',  ( 0.000000000000000000, 0.000000000000000000, 1.000000000000000000 ) ) ;
#52 = ADVANCED_BREP_SHAPE_REPRESENTATION ( '0fb2', ( #255, #128 ), #28 ) ;
#53 = EDGE_CURVE ( 'NONE', #39, #216, #182, .T. ) ;
#54 = AXIS2_PLACEMENT_3D ( 'NONE', #83, #173, #8 ) ;
#55 = PLANE ( 'NONE',  #66 ) ;
#56 = ORIENTED_EDGE ( 'NONE', *, *, #53, .T. ) ;
#57 = ORIENTED_EDGE ( 'NONE', *, *, #265, .T. ) ;
#58 = DIRECTION ( 'NONE',  ( 1.000000000000000000, 0.000000000000000000, 0.000000000000000000 ) ) ;
#59 = APPROVAL ( #135, 'NEURÈENÝ' ) ;
#60 = CARTESIAN_POINT ( 'NONE',  ( 0.000000000000000000, 0.000000000000000000, 3.000000000000000000 ) ) ;
#61 = CARTESIAN_POINT ( 'NONE',  ( 0.000000000000000000, 0.000000000000000000, 3.199999999999994404 ) ) ;
#62 = EDGE_CURVE ( 'NONE', #33, #238, #48, .T. ) ;
#63 = DIRECTION ( 'NONE',  ( -0.000000000000000000, -0.000000000000000000, -1.000000000000000000 ) ) ;
#64 = CYLINDRICAL_SURFACE ( 'NONE', #163, 2.250000000000000000 ) ;
#65 = CALENDAR_DATE ( 2022, 7, 7 ) ;
#66 = AXIS2_PLACEMENT_3D ( 'NONE', #76, #167, #73 ) ;
#67 = ORIENTED_EDGE ( 'NONE', *, *, #243, .T. ) ;
#68 = CYLINDRICAL_SURFACE ( 'NONE', #122, 2.250000000000000000 ) ;
#69 = APPROVAL_DATE_TIME ( #156, #102 ) ;
#70 = CARTESIAN_POINT ( 'NONE',  ( 2.449999999999999734, 0.000000000000000000, 2.999999999999997335 ) ) ;
#71 = CALENDAR_DATE ( 2022, 7, 7 ) ;
#72 = ADVANCED_FACE ( 'NONE', ( #172 ), #192, .T. ) ;
#73 = DIRECTION ( 'NONE',  ( 1.000000000000000000, 0.000000000000000000, -0.000000000000000000 ) ) ;
#74 = LINE ( 'NONE', #185, #133 ) ;
#75 = EDGE_CURVE ( 'NONE', #213, #10, #45, .T. ) ;
#76 = CARTESIAN_POINT ( 'NONE',  ( 0.000000000000000000, 0.000000000000000000, 0.000000000000000000 ) ) ;
#77 = AXIS2_PLACEMENT_3D ( 'NONE', #291, #293, #170 ) ;
#78 = DIRECTION ( 'NONE',  ( -1.000000000000000000, 0.000000000000000000, 0.000000000000000000 ) ) ;
#79 = CARTESIAN_POINT ( 'NONE',  ( 0.000000000000000000, 0.000000000000000000, 0.000000000000000000 ) ) ;
#80 = DIRECTION ( 'NONE',  ( 0.000000000000000000, 0.000000000000000000, 1.000000000000000000 ) ) ;
#81 = EDGE_CURVE ( 'NONE', #100, #87, #245, .T. ) ;
#82 = EDGE_LOOP ( 'NONE', ( #67, #56 ) ) ;
#83 = CARTESIAN_POINT ( 'NONE',  ( 0.000000000000000000, 0.000000000000000000, 3.000000000000000000 ) ) ;
#84 = ADVANCED_FACE ( 'NONE', ( #101, #287 ), #264, .T. ) ;
#85 = LOCAL_TIME ( 14, 48, 27.00000000000000000, #138 ) ;
#86 = CARTESIAN_POINT ( 'NONE',  ( 0.000000000000000000, 0.000000000000000000, 0.000000000000000000 ) ) ;
#87 = VERTEX_POINT ( 'NONE', #215 ) ;
#88 = DIRECTION ( 'NONE',  ( 0.000000000000000000, 0.000000000000000000, 1.000000000000000000 ) ) ;
#89 = CALENDAR_DATE ( 2022, 7, 7 ) ;
#90 = CARTESIAN_POINT ( 'NONE',  ( 0.000000000000000000, 0.000000000000000000, 128.0000000000000000 ) ) ;
#91 = CC_DESIGN_DATE_AND_TIME_ASSIGNMENT ( #254, #183, ( #233 ) ) ;
#92 = PERSON_AND_ORGANIZATION ( #162, #204 ) ;
#93 = ADVANCED_FACE ( 'NONE', ( #193 ), #189, .F. ) ;
#94 = VECTOR ( 'NONE', #26, 1000.000000000000000 ) ;
#95 = APPROVAL_PERSON_ORGANIZATION ( #184, #59, #303 ) ;
#96 = APPROVAL_STATUS ( 'not_yet_approved' ) ;
#97 = APPLICATION_CONTEXT ( 'configuration controlled 3d designs of mechanical parts and assemblies' ) ;
#98 =( NAMED_UNIT ( * ) PLANE_ANGLE_UNIT ( ) SI_UNIT ( $, .RADIAN. ) );
#99 = CARTESIAN_POINT ( 'NONE',  ( 4.000000000000000000, 4.898587196589412829E-16, 3.000000000000000000 ) ) ;
#100 = VERTEX_POINT ( 'NONE', #272 ) ;
#101 = FACE_BOUND ( 'NONE', #125, .T. ) ;
#102 = APPROVAL ( #236, 'NEURÈENÝ' ) ;
#103 = CARTESIAN_POINT ( 'NONE',  ( 0.000000000000000000, 0.000000000000000000, 3.000000000000000000 ) ) ;
#104 = ORIENTED_EDGE ( 'NONE', *, *, #181, .T. ) ;
#105 = ORIENTED_EDGE ( 'NONE', *, *, #161, .F. ) ;
#106 = ADVANCED_FACE ( 'NONE', ( #295 ), #297, .T. ) ;
#107 = DIRECTION ( 'NONE',  ( -1.000000000000000000, 0.000000000000000000, 0.000000000000000000 ) ) ;
#108 = PRODUCT_DEFINITION_SHAPE ( 'NONE', 'NONE',  #230 ) ;
#109 = APPROVAL_PERSON_ORGANIZATION ( #210, #102, #278 ) ;
#110 = ORIENTED_EDGE ( 'NONE', *, *, #75, .F. ) ;
#111 = DIRECTION ( 'NONE',  ( 1.000000000000000000, 0.000000000000000000, 0.000000000000000000 ) ) ;
#112 = DIRECTION ( 'NONE',  ( -1.000000000000000000, 0.000000000000000000, 0.000000000000000000 ) ) ;
#113 = DATE_AND_TIME ( #71, #289 ) ;
#114 = CC_DESIGN_DATE_AND_TIME_ASSIGNMENT ( #113, #276, ( #230 ) ) ;
#115 = CARTESIAN_POINT ( 'NONE',  ( 0.000000000000000000, 0.000000000000000000, 128.0000000000000000 ) ) ;
#116 = PERSON_AND_ORGANIZATION ( #162, #204 ) ;
#117 = AXIS2_PLACEMENT_3D ( 'NONE', #301, #175, #196 ) ;
#118 = APPROVAL_DATE_TIME ( #18, #176 ) ;
#119 = AXIS2_PLACEMENT_3D ( 'NONE', #61, #169, #237 ) ;
#120 = AXIS2_PLACEMENT_3D ( 'NONE', #16, #220, #111 ) ;
#121 = ADVANCED_FACE ( 'NONE', ( #137 ), #219, .T. ) ;
#122 = AXIS2_PLACEMENT_3D ( 'NONE', #252, #63, #107 ) ;
#123 = FACE_OUTER_BOUND ( 'NONE', #218, .T. ) ;
#124 = LOCAL_TIME ( 14, 48, 27.00000000000000000, #224 ) ;
#125 = EDGE_LOOP ( 'NONE', ( #4, #148 ) ) ;
#126 = ORIENTED_EDGE ( 'NONE', *, *, #161, .T. ) ;
#127 = DIRECTION ( 'NONE',  ( 1.000000000000000000, 0.000000000000000000, 0.000000000000000000 ) ) ;
#128 = AXIS2_PLACEMENT_3D ( 'NONE', #27, #51, #49 ) ;
#129 = PRODUCT_RELATED_PRODUCT_CATEGORY ( 'detail', '', ( #203 ) ) ;
#130 = ORIENTED_EDGE ( 'NONE', *, *, #277, .T. ) ;
#131 = EDGE_LOOP ( 'NONE', ( #199, #190, #126, #36 ) ) ;
#132 = DIRECTION ( 'NONE',  ( -0.000000000000000000, -0.000000000000000000, -1.000000000000000000 ) ) ;
#133 = VECTOR ( 'NONE', #211, 1000.000000000000000 ) ;
#134 = DIRECTION ( 'NONE',  ( 1.000000000000000000, 0.000000000000000000, -0.000000000000000000 ) ) ;
#135 = APPROVAL_STATUS ( 'not_yet_approved' ) ;
#136 = ORIENTED_EDGE ( 'NONE', *, *, #81, .F. ) ;
#137 = FACE_OUTER_BOUND ( 'NONE', #30, .T. ) ;
#138 = COORDINATED_UNIVERSAL_TIME_OFFSET ( 1, 0, .AHEAD. ) ;
#139 = CC_DESIGN_APPROVAL ( #176, ( #233 ) ) ;
#140 = PERSON_AND_ORGANIZATION ( #162, #204 ) ;
#141 = APPLICATION_CONTEXT ( 'configuration controlled 3d designs of mechanical parts and assemblies' ) ;
#142 = TOROIDAL_SURFACE ( 'NONE', #117, 2.449999999999999734, 0.2000000000000000111 ) ;
#143 = CC_DESIGN_PERSON_AND_ORGANIZATION_ASSIGNMENT ( #116, #300, ( #233 ) ) ;
#144 = PERSON_AND_ORGANIZATION ( #162, #204 ) ;
#145 = LINE ( 'NONE', #22, #94 ) ;
#146 = DIRECTION ( 'NONE',  ( 1.000000000000000000, 0.000000000000000000, 0.000000000000000000 ) ) ;
#147 = CARTESIAN_POINT ( 'NONE',  ( -2.449999999999999734, 3.000384657911015370E-16, 2.999999999999997335 ) ) ;
#148 = ORIENTED_EDGE ( 'NONE', *, *, #194, .T. ) ;
#149 = ORIENTED_EDGE ( 'NONE', *, *, #194, .F. ) ;
#150 = EDGE_LOOP ( 'NONE', ( #178, #195, #212, #149 ) ) ;
#151 = ORIENTED_EDGE ( 'NONE', *, *, #265, .F. ) ;
#152 = EDGE_LOOP ( 'NONE', ( #271, #284, #130, #105 ) ) ;
#153 = DIRECTION ( 'NONE',  ( 1.000000000000000000, 0.000000000000000000, 0.000000000000000000 ) ) ;
#154 = DESIGN_CONTEXT ( 'detailed design', #97, 'design' ) ;
#155 = DIRECTION ( 'NONE',  ( 0.000000000000000000, 0.000000000000000000, -1.000000000000000000 ) ) ;
#156 = DATE_AND_TIME ( #205, #124 ) ;
#157 = CIRCLE ( 'NONE', #1, 0.2000000000000000944 ) ;
#158 = LOCAL_TIME ( 14, 48, 27.00000000000000000, #228 ) ;
#159 = LINE ( 'NONE', #200, #250 ) ;
#160 = FACE_OUTER_BOUND ( 'NONE', #152, .T. ) ;
#161 = EDGE_CURVE ( 'NONE', #238, #100, #159, .T. ) ;
#162 = PERSON ( 'NEURÈENÝ', 'NEURÈENÝ', 'NEURÈENÝ', ('NEURÈENÝ'), ('NEURÈENÝ'), ('NEURÈENÝ') ) ;
#163 = AXIS2_PLACEMENT_3D ( 'NONE', #115, #132, #299 ) ;
#164 = COORDINATED_UNIVERSAL_TIME_OFFSET ( 1, 0, .AHEAD. ) ;
#165 =( LENGTH_UNIT ( ) NAMED_UNIT ( * ) SI_UNIT ( .MILLI., .METRE. ) );
#166 = ADVANCED_FACE ( 'NONE', ( #20 ), #142, .F. ) ;
#167 = DIRECTION ( 'NONE',  ( 0.000000000000000000, 0.000000000000000000, 1.000000000000000000 ) ) ;
#168 = ADVANCED_FACE ( 'NONE', ( #160 ), #68, .T. ) ;
#169 = DIRECTION ( 'NONE',  ( 0.000000000000000000, 0.000000000000000000, 1.000000000000000000 ) ) ;
#170 = DIRECTION ( 'NONE',  ( 1.000000000000000000, 0.000000000000000000, 0.000000000000000000 ) ) ;
#171 = DIRECTION ( 'NONE',  ( 1.000000000000000000, 0.000000000000000000, -0.000000000000000000 ) ) ;
#172 = FACE_OUTER_BOUND ( 'NONE', #174, .T. ) ;
#173 = DIRECTION ( 'NONE',  ( 0.000000000000000000, 0.000000000000000000, 1.000000000000000000 ) ) ;
#174 = EDGE_LOOP ( 'NONE', ( #251, #57, #15, #29 ) ) ;
#175 = DIRECTION ( 'NONE',  ( 0.000000000000000000, 0.000000000000000000, 1.000000000000000000 ) ) ;
#176 = APPROVAL ( #96, 'NEURÈENÝ' ) ;
#177 = DIRECTION ( 'NONE',  ( 0.000000000000000000, 0.000000000000000000, 1.000000000000000000 ) ) ;
#178 = ORIENTED_EDGE ( 'NONE', *, *, #292, .F. ) ;
#179 = SHAPE_DEFINITION_REPRESENTATION ( #108, #52 ) ;
#180 = CARTESIAN_POINT ( 'NONE',  ( -2.250000000000000000, 0.000000000000000000, 128.0000000000000000 ) ) ;
#181 = EDGE_CURVE ( 'NONE', #9, #241, #191, .T. ) ;
#182 = CIRCLE ( 'NONE', #54, 4.000000000000000000 ) ;
#183 = DATE_TIME_ROLE ( 'classification_date' ) ;
#184 = PERSON_AND_ORGANIZATION ( #162, #204 ) ;
#185 = CARTESIAN_POINT ( 'NONE',  ( -4.000000000000000000, 0.000000000000000000, 3.000000000000000000 ) ) ;
#186 = PRODUCT_DEFINITION_FORMATION_WITH_SPECIFIED_SOURCE ( 'LIBOVOLNÝ', '', #203, .NOT_KNOWN. ) ;
#187 = DIRECTION ( 'NONE',  ( 1.224646799147353207E-16, 1.000000000000000000, -0.000000000000000000 ) ) ;
#188 = DIRECTION ( 'NONE',  ( -0.000000000000000000, -0.000000000000000000, -1.000000000000000000 ) ) ;
#189 = TOROIDAL_SURFACE ( 'NONE', #223, 2.449999999999999734, 0.2000000000000000111 ) ;
#190 = ORIENTED_EDGE ( 'NONE', *, *, #3, .F. ) ;
#191 = CIRCLE ( 'NONE', #14, 4.000000000000000000 ) ;
#192 = CYLINDRICAL_SURFACE ( 'NONE', #260, 4.000000000000000000 ) ;
#193 = FACE_OUTER_BOUND ( 'NONE', #240, .T. ) ;
#194 = EDGE_CURVE ( 'NONE', #10, #213, #226, .T. ) ;
#195 = ORIENTED_EDGE ( 'NONE', *, *, #277, .F. ) ;
#196 = DIRECTION ( 'NONE',  ( 1.000000000000000000, 0.000000000000000000, 0.000000000000000000 ) ) ;
#197 = ORIENTED_EDGE ( 'NONE', *, *, #3, .T. ) ;
#198 = CARTESIAN_POINT ( 'NONE',  ( 0.000000000000000000, 0.000000000000000000, 3.000000000000000000 ) ) ;
#199 = ORIENTED_EDGE ( 'NONE', *, *, #257, .F. ) ;
#200 = CARTESIAN_POINT ( 'NONE',  ( -2.250000000000000000, 0.000000000000000000, 128.0000000000000000 ) ) ;
#201 = CARTESIAN_POINT ( 'NONE',  ( 2.449999999999999734, 0.000000000000000000, 3.199999999999994404 ) ) ;
#202 = APPROVAL_DATE_TIME ( #305, #59 ) ;
#203 = PRODUCT ( '0fb2', '0fb2', '', ( #261 ) ) ;
#204 = ORGANIZATION ( 'NEURÈENÝ', 'NEURÈENÝ', '' ) ;
#205 = CALENDAR_DATE ( 2022, 7, 7 ) ;
#206 = ADVANCED_FACE ( 'NONE', ( #247 ), #64, .T. ) ;
#207 = PERSON_AND_ORGANIZATION_ROLE ( 'design_owner' ) ;
#208 = LINE ( 'NONE', #99, #288 ) ;
#209 = CIRCLE ( 'NONE', #77, 2.250000000000000000 ) ;
#210 = PERSON_AND_ORGANIZATION ( #162, #204 ) ;
#211 = DIRECTION ( 'NONE',  ( -0.000000000000000000, -0.000000000000000000, -1.000000000000000000 ) ) ;
#212 = ORIENTED_EDGE ( 'NONE', *, *, #234, .T. ) ;
#213 = VERTEX_POINT ( 'NONE', #70 ) ;
#214 = AXIS2_PLACEMENT_3D ( 'NONE', #40, #17, #274 ) ;
#215 = CARTESIAN_POINT ( 'NONE',  ( 2.250000000000000000, 2.755455298081544285E-16, 3.199999999999994404 ) ) ;
#216 = VERTEX_POINT ( 'NONE', #43 ) ;
#217 = DIRECTION ( 'NONE',  ( 0.000000000000000000, 0.000000000000000000, 1.000000000000000000 ) ) ;
#218 = EDGE_LOOP ( 'NONE', ( #246, #262 ) ) ;
#219 = CYLINDRICAL_SURFACE ( 'NONE', #227, 4.000000000000000000 ) ;
#220 = DIRECTION ( 'NONE',  ( -0.000000000000000000, -0.000000000000000000, -1.000000000000000000 ) ) ;
#221 = PERSON_AND_ORGANIZATION ( #162, #204 ) ;
#222 = DIRECTION ( 'NONE',  ( -0.000000000000000000, -0.000000000000000000, -1.000000000000000000 ) ) ;
#223 = AXIS2_PLACEMENT_3D ( 'NONE', #12, #217, #37 ) ;
#224 = COORDINATED_UNIVERSAL_TIME_OFFSET ( 1, 0, .AHEAD. ) ;
#225 = APPROVAL_ROLE ( '' ) ;
#226 = CIRCLE ( 'NONE', #120, 2.449999999999999734 ) ;
#227 = AXIS2_PLACEMENT_3D ( 'NONE', #198, #222, #112 ) ;
#228 = COORDINATED_UNIVERSAL_TIME_OFFSET ( 1, 0, .AHEAD. ) ;
#229 = CIRCLE ( 'NONE', #11, 4.000000000000000000 ) ;
#230 = PRODUCT_DEFINITION ( 'NEZNÁMÝ', '', #186, #154 ) ;
#231 = DIRECTION ( 'NONE',  ( -1.000000000000000000, 1.224646799147353207E-16, 0.000000000000000000 ) ) ;
#232 = CIRCLE ( 'NONE', #6, 0.2000000000000000944 ) ;
#233 = SECURITY_CLASSIFICATION ( '', '', #21 ) ;
#234 = EDGE_CURVE ( 'NONE', #87, #213, #157, .T. ) ;
#235 = APPLICATION_PROTOCOL_DEFINITION ( 'international standard', 'config_control_design', 1994, #97 ) ;
#236 = APPROVAL_STATUS ( 'not_yet_approved' ) ;
#237 = DIRECTION ( 'NONE',  ( 1.000000000000000000, 0.000000000000000000, 0.000000000000000000 ) ) ;
#238 = VERTEX_POINT ( 'NONE', #180 ) ;
#239 = CARTESIAN_POINT ( 'NONE',  ( 2.250000000000000000, 2.755455298081544285E-16, 128.0000000000000000 ) ) ;
#240 = EDGE_LOOP ( 'NONE', ( #136, #32, #110, #42 ) ) ;
#241 = VERTEX_POINT ( 'NONE', #249 ) ;
#242 = LOCAL_TIME ( 14, 48, 27.00000000000000000, #164 ) ;
#243 = EDGE_CURVE ( 'NONE', #216, #39, #294, .T. ) ;
#244 = ORIENTED_EDGE ( 'NONE', *, *, #62, .T. ) ;
#245 = CIRCLE ( 'NONE', #119, 2.250000000000000000 ) ;
#246 = ORIENTED_EDGE ( 'NONE', *, *, #181, .F. ) ;
#247 = FACE_OUTER_BOUND ( 'NONE', #131, .T. ) ;
#248 = ORIENTED_EDGE ( 'NONE', *, *, #282, .T. ) ;
#249 = CARTESIAN_POINT ( 'NONE',  ( 4.000000000000000000, 4.898587196589412829E-16, 0.000000000000000000 ) ) ;
#250 = VECTOR ( 'NONE', #269, 1000.000000000000000 ) ;
#251 = ORIENTED_EDGE ( 'NONE', *, *, #53, .F. ) ;
#252 = CARTESIAN_POINT ( 'NONE',  ( 0.000000000000000000, 0.000000000000000000, 128.0000000000000000 ) ) ;
#253 = PERSON_AND_ORGANIZATION_ROLE ( 'creator' ) ;
#254 = DATE_AND_TIME ( #258, #158 ) ;
#255 = MANIFOLD_SOLID_BREP ( 'Zaoblit1', #275 ) ;
#256 = CC_DESIGN_SECURITY_CLASSIFICATION ( #233, ( #186 ) ) ;
#257 = EDGE_CURVE ( 'NONE', #33, #87, #145, .T. ) ;
#258 = CALENDAR_DATE ( 2022, 7, 7 ) ;
#259 = APPLICATION_PROTOCOL_DEFINITION ( 'international standard', 'config_control_design', 1994, #141 ) ;
#260 = AXIS2_PLACEMENT_3D ( 'NONE', #268, #266, #78 ) ;
#261 = MECHANICAL_CONTEXT ( 'NONE', #141, 'mechanical' ) ;
#262 = ORIENTED_EDGE ( 'NONE', *, *, #25, .F. ) ;
#263 = AXIS2_PLACEMENT_3D ( 'NONE', #307, #279, #50 ) ;
#264 = PLANE ( 'NONE',  #285 ) ;
#265 = EDGE_CURVE ( 'NONE', #39, #241, #208, .T. ) ;
#266 = DIRECTION ( 'NONE',  ( -0.000000000000000000, -0.000000000000000000, -1.000000000000000000 ) ) ;
#267 = DIRECTION ( 'NONE',  ( 0.000000000000000000, 0.000000000000000000, 1.000000000000000000 ) ) ;
#268 = CARTESIAN_POINT ( 'NONE',  ( 0.000000000000000000, 0.000000000000000000, 3.000000000000000000 ) ) ;
#269 = DIRECTION ( 'NONE',  ( -0.000000000000000000, -0.000000000000000000, -1.000000000000000000 ) ) ;
#270 = DIRECTION ( 'NONE',  ( 0.000000000000000000, -1.000000000000000000, 0.000000000000000000 ) ) ;
#271 = ORIENTED_EDGE ( 'NONE', *, *, #62, .F. ) ;
#272 = CARTESIAN_POINT ( 'NONE',  ( -2.250000000000000000, 0.000000000000000000, 3.199999999999994404 ) ) ;
#273 = COORDINATED_UNIVERSAL_TIME_OFFSET ( 1, 0, .AHEAD. ) ;
#274 = DIRECTION ( 'NONE',  ( 1.000000000000000000, 0.000000000000000000, 0.000000000000000000 ) ) ;
#275 = CLOSED_SHELL ( 'NONE', ( #93, #168, #72, #121, #84, #286, #206, #106, #166 ) ) ;
#276 = DATE_TIME_ROLE ( 'creation_date' ) ;
#277 = EDGE_CURVE ( 'NONE', #87, #100, #23, .T. ) ;
#278 = APPROVAL_ROLE ( '' ) ;
#279 = DIRECTION ( 'NONE',  ( 0.000000000000000000, 0.000000000000000000, 1.000000000000000000 ) ) ;
#280 = CARTESIAN_POINT ( 'NONE',  ( -2.449999999999999734, 3.000384657911015370E-16, 3.199999999999994404 ) ) ;
#281 =( NAMED_UNIT ( * ) SI_UNIT ( $, .STERADIAN. ) SOLID_ANGLE_UNIT ( ) );
#282 = EDGE_CURVE ( 'NONE', #216, #9, #74, .T. ) ;
#283 = DIRECTION ( 'NONE',  ( -0.000000000000000000, -0.000000000000000000, -1.000000000000000000 ) ) ;
#284 = ORIENTED_EDGE ( 'NONE', *, *, #257, .T. ) ;
#285 = AXIS2_PLACEMENT_3D ( 'NONE', #103, #80, #171 ) ;
#286 = ADVANCED_FACE ( 'NONE', ( #123 ), #55, .F. ) ;
#287 = FACE_OUTER_BOUND ( 'NONE', #82, .T. ) ;
#288 = VECTOR ( 'NONE', #283, 1000.000000000000000 ) ;
#289 = LOCAL_TIME ( 14, 48, 27.00000000000000000, #273 ) ;
#290 = ORIENTED_EDGE ( 'NONE', *, *, #243, .F. ) ;
#291 = CARTESIAN_POINT ( 'NONE',  ( 0.000000000000000000, 0.000000000000000000, 128.0000000000000000 ) ) ;
#292 = EDGE_CURVE ( 'NONE', #100, #10, #232, .T. ) ;
#293 = DIRECTION ( 'NONE',  ( 0.000000000000000000, 0.000000000000000000, 1.000000000000000000 ) ) ;
#294 = CIRCLE ( 'NONE', #214, 4.000000000000000000 ) ;
#295 = FACE_OUTER_BOUND ( 'NONE', #296, .T. ) ;
#296 = EDGE_LOOP ( 'NONE', ( #197, #244 ) ) ;
#297 = PLANE ( 'NONE',  #46 ) ;
#298 = CC_DESIGN_PERSON_AND_ORGANIZATION_ASSIGNMENT ( #92, #44, ( #186 ) ) ;
#299 = DIRECTION ( 'NONE',  ( -1.000000000000000000, 0.000000000000000000, 0.000000000000000000 ) ) ;
#300 = PERSON_AND_ORGANIZATION_ROLE ( 'classification_officer' ) ;
#301 = CARTESIAN_POINT ( 'NONE',  ( 0.000000000000000000, 0.000000000000000000, 3.199999999999994404 ) ) ;
#302 = CC_DESIGN_APPROVAL ( #59, ( #186 ) ) ;
#303 = APPROVAL_ROLE ( '' ) ;
#304 = CC_DESIGN_PERSON_AND_ORGANIZATION_ASSIGNMENT ( #144, #207, ( #203 ) ) ;
#305 = DATE_AND_TIME ( #65, #85 ) ;
#306 = CC_DESIGN_PERSON_AND_ORGANIZATION_ASSIGNMENT ( #47, #41, ( #186 ) ) ;
#307 = CARTESIAN_POINT ( 'NONE',  ( 0.000000000000000000, 0.000000000000000000, 3.199999999999994404 ) ) ;
ENDSEC;
END-ISO-10303-21;
