ISO-10303-21;
HEADER;
FILE_DESCRIPTION (( 'STEP AP203' ),
    '1' );
FILE_NAME ('77f5.STEP',
    '2023-02-12T11:18:53',
    ( '' ),
    ( '' ),
    'SwSTEP 2.0',
    'SolidWorks 2019',
    '' );
FILE_SCHEMA (( 'CONFIG_CONTROL_DESIGN' ));
ENDSEC;

DATA;
#1 = ORIENTED_EDGE ( 'NONE', *, *, #62, .T. ) ;
#2 = PERSON_AND_ORGANIZATION ( #32, #163 ) ;
#3 = PRODUCT ( '77f5', '77f5', '', ( #200 ) ) ;
#4 = VERTEX_POINT ( 'NONE', #211 ) ;
#5 = EDGE_CURVE ( 'NONE', #194, #108, #16, .T. ) ;
#6 = SECURITY_CLASSIFICATION_LEVEL ( 'unclassified' ) ;
#7 = DIRECTION ( 'NONE',  ( 0.000000000000000000, 0.000000000000000000, 1.000000000000000000 ) ) ;
#8 = COORDINATED_UNIVERSAL_TIME_OFFSET ( 1, 0, .AHEAD. ) ;
#9 = AXIS2_PLACEMENT_3D ( 'NONE', #166, #124, #35 ) ;
#10 = PERSON_AND_ORGANIZATION ( #32, #163 ) ;
#11 = CIRCLE ( 'NONE', #248, 7.000000000000000000 ) ;
#12 = DIRECTION ( 'NONE',  ( 0.000000000000000000, 0.000000000000000000, 1.000000000000000000 ) ) ;
#13 = AXIS2_PLACEMENT_3D ( 'NONE', #219, #115, #157 ) ;
#14 = MANIFOLD_SOLID_BREP ( 'Pøidat vysunutím3', #21 ) ;
#15 = DIRECTION ( 'NONE',  ( 1.000000000000000000, 0.000000000000000000, -0.000000000000000000 ) ) ;
#16 = CIRCLE ( 'NONE', #154, 7.000000000000000000 ) ;
#17 = AXIS2_PLACEMENT_3D ( 'NONE', #246, #143, #223 ) ;
#18 = SECURITY_CLASSIFICATION ( '', '', #6 ) ;
#19 = APPROVAL ( #140, 'NEURÈENÝ' ) ;
#20 = CARTESIAN_POINT ( 'NONE',  ( 0.000000000000000000, 0.000000000000000000, 5.000000000000000000 ) ) ;
#21 = CLOSED_SHELL ( 'NONE', ( #207, #81, #129, #85, #254, #137, #186 ) ) ;
#22 = CC_DESIGN_PERSON_AND_ORGANIZATION_ASSIGNMENT ( #180, #80, ( #167 ) ) ;
#23 = ORIENTED_EDGE ( 'NONE', *, *, #106, .F. ) ;
#24 = LOCAL_TIME ( 12, 18, 53.00000000000000000, #118 ) ;
#25 = DATE_AND_TIME ( #198, #76 ) ;
#26 = PERSON_AND_ORGANIZATION ( #32, #163 ) ;
#27 = AXIS2_PLACEMENT_3D ( 'NONE', #65, #51, #67 ) ;
#28 = APPROVAL_DATE_TIME ( #41, #33 ) ;
#29 = DIRECTION ( 'NONE',  ( 1.000000000000000000, 0.000000000000000000, 0.000000000000000000 ) ) ;
#30 = EDGE_CURVE ( 'NONE', #108, #194, #187, .T. ) ;
#31 = DIRECTION ( 'NONE',  ( 1.000000000000000000, 0.000000000000000000, 0.000000000000000000 ) ) ;
#32 = PERSON ( 'NEURÈENÝ', 'NEURÈENÝ', 'NEURÈENÝ', ('NEURÈENÝ'), ('NEURÈENÝ'), ('NEURÈENÝ') ) ;
#33 = APPROVAL ( #175, 'NEURÈENÝ' ) ;
#34 = DESIGN_CONTEXT ( 'detailed design', #49, 'design' ) ;
#35 = DIRECTION ( 'NONE',  ( -1.000000000000000000, 0.000000000000000000, 0.000000000000000000 ) ) ;
#36 = DIRECTION ( 'NONE',  ( -0.000000000000000000, -0.000000000000000000, -1.000000000000000000 ) ) ;
#37 = CIRCLE ( 'NONE', #179, 4.099999999999999645 ) ;
#38 = VERTEX_POINT ( 'NONE', #181 ) ;
#39 = CC_DESIGN_PERSON_AND_ORGANIZATION_ASSIGNMENT ( #77, #177, ( #18 ) ) ;
#40 = CARTESIAN_POINT ( 'NONE',  ( 0.000000000000000000, 0.000000000000000000, 5.000000000000000000 ) ) ;
#41 = DATE_AND_TIME ( #201, #24 ) ;
#42 = PRODUCT_DEFINITION_FORMATION_WITH_SPECIFIED_SOURCE ( 'LIBOVOLNÝ', '', #3, .NOT_KNOWN. ) ;
#43 = DIRECTION ( 'NONE',  ( 1.000000000000000000, 0.000000000000000000, -0.000000000000000000 ) ) ;
#44 = FACE_BOUND ( 'NONE', #225, .T. ) ;
#45 = PERSON_AND_ORGANIZATION_ROLE ( 'design_owner' ) ;
#46 = APPROVAL_PERSON_ORGANIZATION ( #123, #19, #183 ) ;
#47 = CALENDAR_DATE ( 2023, 12, 2 ) ;
#48 = FACE_OUTER_BOUND ( 'NONE', #196, .T. ) ;
#49 = APPLICATION_CONTEXT ( 'configuration controlled 3d designs of mechanical parts and assemblies' ) ;
#50 = CARTESIAN_POINT ( 'NONE',  ( 0.000000000000000000, 0.000000000000000000, 5.000000000000000000 ) ) ;
#51 = DIRECTION ( 'NONE',  ( -0.000000000000000000, -0.000000000000000000, -1.000000000000000000 ) ) ;
#52 = CARTESIAN_POINT ( 'NONE',  ( 4.099999999999999645, 5.021051876504147385E-16, 100.0000000000000000 ) ) ;
#53 = VECTOR ( 'NONE', #36, 1000.000000000000000 ) ;
#54 = CARTESIAN_POINT ( 'NONE',  ( 0.000000000000000000, 0.000000000000000000, 5.000000000000000000 ) ) ;
#55 = ORIENTED_EDGE ( 'NONE', *, *, #94, .F. ) ;
#56 = DIRECTION ( 'NONE',  ( -0.000000000000000000, -0.000000000000000000, -1.000000000000000000 ) ) ;
#57 = LOCAL_TIME ( 12, 18, 53.00000000000000000, #8 ) ;
#58 = ORIENTED_EDGE ( 'NONE', *, *, #155, .F. ) ;
#59 = APPROVAL_ROLE ( '' ) ;
#60 = PLANE ( 'NONE',  #119 ) ;
#61 = CARTESIAN_POINT ( 'NONE',  ( 0.000000000000000000, 0.000000000000000000, 5.000000000000000000 ) ) ;
#62 = EDGE_CURVE ( 'NONE', #149, #153, #91, .T. ) ;
#63 = DATE_TIME_ROLE ( 'classification_date' ) ;
#64 = PLANE ( 'NONE',  #82 ) ;
#65 = CARTESIAN_POINT ( 'NONE',  ( 0.000000000000000000, 0.000000000000000000, 5.000000000000000000 ) ) ;
#66 = ORIENTED_EDGE ( 'NONE', *, *, #98, .T. ) ;
#67 = DIRECTION ( 'NONE',  ( -1.000000000000000000, 0.000000000000000000, 0.000000000000000000 ) ) ;
#68 = CC_DESIGN_PERSON_AND_ORGANIZATION_ASSIGNMENT ( #26, #45, ( #3 ) ) ;
#69 = CARTESIAN_POINT ( 'NONE',  ( 7.000000000000000000, 8.572527594031473190E-16, 0.000000000000000000 ) ) ;
#70 = ORIENTED_EDGE ( 'NONE', *, *, #98, .F. ) ;
#71 = AXIS2_PLACEMENT_3D ( 'NONE', #199, #184, #15 ) ;
#72 = ORIENTED_EDGE ( 'NONE', *, *, #30, .F. ) ;
#73 = ORIENTED_EDGE ( 'NONE', *, *, #182, .T. ) ;
#74 = ADVANCED_BREP_SHAPE_REPRESENTATION ( '77f5', ( #14, #13 ), #109 ) ;
#75 = ORIENTED_EDGE ( 'NONE', *, *, #106, .T. ) ;
#76 = LOCAL_TIME ( 12, 18, 53.00000000000000000, #220 ) ;
#77 = PERSON_AND_ORGANIZATION ( #32, #163 ) ;
#78 = DIRECTION ( 'NONE',  ( 0.000000000000000000, 0.000000000000000000, 1.000000000000000000 ) ) ;
#79 = DIRECTION ( 'NONE',  ( 1.000000000000000000, 0.000000000000000000, 0.000000000000000000 ) ) ;
#80 = PERSON_AND_ORGANIZATION_ROLE ( 'creator' ) ;
#81 = ADVANCED_FACE ( 'NONE', ( #239 ), #158, .T. ) ;
#82 = AXIS2_PLACEMENT_3D ( 'NONE', #121, #99, #165 ) ;
#83 = APPROVAL_PERSON_ORGANIZATION ( #2, #117, #59 ) ;
#84 = LINE ( 'NONE', #244, #188 ) ;
#85 = ADVANCED_FACE ( 'NONE', ( #44, #218 ), #116, .T. ) ;
#86 = COORDINATED_UNIVERSAL_TIME_OFFSET ( 1, 0, .AHEAD. ) ;
#87 = DIRECTION ( 'NONE',  ( 1.000000000000000000, 0.000000000000000000, 0.000000000000000000 ) ) ;
#88 = CARTESIAN_POINT ( 'NONE',  ( -4.099999999999999645, 0.000000000000000000, 100.0000000000000000 ) ) ;
#89 = CC_DESIGN_DATE_AND_TIME_ASSIGNMENT ( #221, #63, ( #18 ) ) ;
#90 = EDGE_LOOP ( 'NONE', ( #131, #192, #66, #55 ) ) ;
#91 = CIRCLE ( 'NONE', #243, 4.099999999999999645 ) ;
#92 = PERSON_AND_ORGANIZATION ( #32, #163 ) ;
#93 = PERSON_AND_ORGANIZATION_ROLE ( 'design_supplier' ) ;
#94 = EDGE_CURVE ( 'NONE', #108, #38, #142, .T. ) ;
#95 =( NAMED_UNIT ( * ) PLANE_ANGLE_UNIT ( ) SI_UNIT ( $, .RADIAN. ) );
#96 = CIRCLE ( 'NONE', #235, 4.099999999999999645 ) ;
#97 = APPROVAL_ROLE ( '' ) ;
#98 = EDGE_CURVE ( 'NONE', #113, #38, #11, .T. ) ;
#99 = DIRECTION ( 'NONE',  ( 0.000000000000000000, 0.000000000000000000, 1.000000000000000000 ) ) ;
#100 = VECTOR ( 'NONE', #204, 1000.000000000000000 ) ;
#101 = APPROVAL_PERSON_ORGANIZATION ( #10, #33, #97 ) ;
#102 = CARTESIAN_POINT ( 'NONE',  ( 4.099999999999999645, 5.021051876504147385E-16, 100.0000000000000000 ) ) ;
#103 = CARTESIAN_POINT ( 'NONE',  ( -7.000000000000000000, 0.000000000000000000, 5.000000000000000000 ) ) ;
#104 = ORIENTED_EDGE ( 'NONE', *, *, #191, .F. ) ;
#105 = VERTEX_POINT ( 'NONE', #190 ) ;
#106 = EDGE_CURVE ( 'NONE', #38, #113, #127, .T. ) ;
#107 = CARTESIAN_POINT ( 'NONE',  ( 0.000000000000000000, 0.000000000000000000, 100.0000000000000000 ) ) ;
#108 = VERTEX_POINT ( 'NONE', #103 ) ;
#109 =( GEOMETRIC_REPRESENTATION_CONTEXT ( 3 ) GLOBAL_UNCERTAINTY_ASSIGNED_CONTEXT ( ( #226 ) ) GLOBAL_UNIT_ASSIGNED_CONTEXT ( ( #159, #95, #136 ) ) REPRESENTATION_CONTEXT ( 'NONE', 'WORKASPACE' ) );
#110 = EDGE_CURVE ( 'NONE', #149, #4, #249, .T. ) ;
#111 = ORIENTED_EDGE ( 'NONE', *, *, #151, .F. ) ;
#112 = CYLINDRICAL_SURFACE ( 'NONE', #202, 4.099999999999999645 ) ;
#113 = VERTEX_POINT ( 'NONE', #69 ) ;
#114 = APPLICATION_PROTOCOL_DEFINITION ( 'international standard', 'config_control_design', 1994, #245 ) ;
#115 = DIRECTION ( 'NONE',  ( 0.000000000000000000, 0.000000000000000000, 1.000000000000000000 ) ) ;
#116 = PLANE ( 'NONE',  #71 ) ;
#117 = APPROVAL ( #138, 'NEURÈENÝ' ) ;
#118 = COORDINATED_UNIVERSAL_TIME_OFFSET ( 1, 0, .AHEAD. ) ;
#119 = AXIS2_PLACEMENT_3D ( 'NONE', #160, #240, #43 ) ;
#120 = APPROVAL_DATE_TIME ( #25, #117 ) ;
#121 = CARTESIAN_POINT ( 'NONE',  ( 0.000000000000000000, 0.000000000000000000, 100.0000000000000000 ) ) ;
#122 = FACE_OUTER_BOUND ( 'NONE', #250, .T. ) ;
#123 = PERSON_AND_ORGANIZATION ( #32, #163 ) ;
#124 = DIRECTION ( 'NONE',  ( -0.000000000000000000, -0.000000000000000000, -1.000000000000000000 ) ) ;
#125 = FACE_OUTER_BOUND ( 'NONE', #150, .T. ) ;
#126 = AXIS2_PLACEMENT_3D ( 'NONE', #61, #134, #135 ) ;
#127 = CIRCLE ( 'NONE', #17, 7.000000000000000000 ) ;
#128 = ORIENTED_EDGE ( 'NONE', *, *, #191, .T. ) ;
#129 = ADVANCED_FACE ( 'NONE', ( #122 ), #209, .T. ) ;
#130 = FACE_OUTER_BOUND ( 'NONE', #176, .T. ) ;
#131 = ORIENTED_EDGE ( 'NONE', *, *, #5, .F. ) ;
#132 = CC_DESIGN_PERSON_AND_ORGANIZATION_ASSIGNMENT ( #133, #93, ( #42 ) ) ;
#133 = PERSON_AND_ORGANIZATION ( #32, #163 ) ;
#134 = DIRECTION ( 'NONE',  ( -0.000000000000000000, -0.000000000000000000, -1.000000000000000000 ) ) ;
#135 = DIRECTION ( 'NONE',  ( -1.000000000000000000, 0.000000000000000000, 0.000000000000000000 ) ) ;
#136 =( NAMED_UNIT ( * ) SI_UNIT ( $, .STERADIAN. ) SOLID_ANGLE_UNIT ( ) );
#137 = ADVANCED_FACE ( 'NONE', ( #125 ), #208, .T. ) ;
#138 = APPROVAL_STATUS ( 'not_yet_approved' ) ;
#139 = CC_DESIGN_SECURITY_CLASSIFICATION ( #18, ( #42 ) ) ;
#140 = APPROVAL_STATUS ( 'not_yet_approved' ) ;
#141 = CARTESIAN_POINT ( 'NONE',  ( -7.000000000000000000, 0.000000000000000000, 5.000000000000000000 ) ) ;
#142 = LINE ( 'NONE', #141, #100 ) ;
#143 = DIRECTION ( 'NONE',  ( 0.000000000000000000, 0.000000000000000000, 1.000000000000000000 ) ) ;
#144 = ORIENTED_EDGE ( 'NONE', *, *, #110, .T. ) ;
#145 = CIRCLE ( 'NONE', #197, 4.099999999999999645 ) ;
#146 = CC_DESIGN_APPROVAL ( #33, ( #167 ) ) ;
#147 = LINE ( 'NONE', #52, #53 ) ;
#148 = DIRECTION ( 'NONE',  ( 1.000000000000000000, 0.000000000000000000, 0.000000000000000000 ) ) ;
#149 = VERTEX_POINT ( 'NONE', #88 ) ;
#150 = EDGE_LOOP ( 'NONE', ( #58, #236, #144, #128 ) ) ;
#151 = EDGE_CURVE ( 'NONE', #194, #113, #84, .T. ) ;
#152 = ORIENTED_EDGE ( 'NONE', *, *, #252, .T. ) ;
#153 = VERTEX_POINT ( 'NONE', #102 ) ;
#154 = AXIS2_PLACEMENT_3D ( 'NONE', #40, #210, #195 ) ;
#155 = EDGE_CURVE ( 'NONE', #153, #105, #147, .T. ) ;
#156 = PERSON_AND_ORGANIZATION_ROLE ( 'creator' ) ;
#157 = DIRECTION ( 'NONE',  ( 1.000000000000000000, 0.000000000000000000, 0.000000000000000000 ) ) ;
#158 = CYLINDRICAL_SURFACE ( 'NONE', #126, 7.000000000000000000 ) ;
#159 =( LENGTH_UNIT ( ) NAMED_UNIT ( * ) SI_UNIT ( .MILLI., .METRE. ) );
#160 = CARTESIAN_POINT ( 'NONE',  ( 0.000000000000000000, 0.000000000000000000, 0.000000000000000000 ) ) ;
#161 = CALENDAR_DATE ( 2023, 12, 2 ) ;
#162 = CARTESIAN_POINT ( 'NONE',  ( 0.000000000000000000, 0.000000000000000000, 100.0000000000000000 ) ) ;
#163 = ORGANIZATION ( 'NEURÈENÝ', 'NEURÈENÝ', '' ) ;
#164 = CALENDAR_DATE ( 2023, 12, 2 ) ;
#165 = DIRECTION ( 'NONE',  ( 1.000000000000000000, 0.000000000000000000, -0.000000000000000000 ) ) ;
#166 = CARTESIAN_POINT ( 'NONE',  ( 0.000000000000000000, 0.000000000000000000, 100.0000000000000000 ) ) ;
#167 = PRODUCT_DEFINITION ( 'NEZNÁMÝ', '', #42, #34 ) ;
#168 = DIRECTION ( 'NONE',  ( 0.000000000000000000, 0.000000000000000000, 1.000000000000000000 ) ) ;
#169 = CARTESIAN_POINT ( 'NONE',  ( -4.099999999999999645, 0.000000000000000000, 100.0000000000000000 ) ) ;
#170 = DIRECTION ( 'NONE',  ( 0.000000000000000000, 0.000000000000000000, 1.000000000000000000 ) ) ;
#171 = ORIENTED_EDGE ( 'NONE', *, *, #94, .T. ) ;
#172 = ORIENTED_EDGE ( 'NONE', *, *, #30, .T. ) ;
#173 = PRODUCT_RELATED_PRODUCT_CATEGORY ( 'detail', '', ( #3 ) ) ;
#174 = AXIS2_PLACEMENT_3D ( 'NONE', #20, #7, #79 ) ;
#175 = APPROVAL_STATUS ( 'not_yet_approved' ) ;
#176 = EDGE_LOOP ( 'NONE', ( #253, #231, #152, #247 ) ) ;
#177 = PERSON_AND_ORGANIZATION_ROLE ( 'classification_officer' ) ;
#178 = APPLICATION_PROTOCOL_DEFINITION ( 'international standard', 'config_control_design', 1994, #49 ) ;
#179 = AXIS2_PLACEMENT_3D ( 'NONE', #50, #205, #31 ) ;
#180 = PERSON_AND_ORGANIZATION ( #32, #163 ) ;
#181 = CARTESIAN_POINT ( 'NONE',  ( -7.000000000000000000, 0.000000000000000000, 0.000000000000000000 ) ) ;
#182 = EDGE_CURVE ( 'NONE', #153, #149, #145, .T. ) ;
#183 = APPROVAL_ROLE ( '' ) ;
#184 = DIRECTION ( 'NONE',  ( 0.000000000000000000, 0.000000000000000000, 1.000000000000000000 ) ) ;
#185 = CC_DESIGN_APPROVAL ( #117, ( #42 ) ) ;
#186 = ADVANCED_FACE ( 'NONE', ( #48 ), #64, .T. ) ;
#187 = CIRCLE ( 'NONE', #174, 7.000000000000000000 ) ;
#188 = VECTOR ( 'NONE', #222, 1000.000000000000000 ) ;
#189 = EDGE_LOOP ( 'NONE', ( #23, #70 ) ) ;
#190 = CARTESIAN_POINT ( 'NONE',  ( 4.099999999999999645, 5.021051876504147385E-16, 5.000000000000000000 ) ) ;
#191 = EDGE_CURVE ( 'NONE', #4, #105, #37, .T. ) ;
#192 = ORIENTED_EDGE ( 'NONE', *, *, #151, .T. ) ;
#193 = VECTOR ( 'NONE', #228, 1000.000000000000000 ) ;
#194 = VERTEX_POINT ( 'NONE', #224 ) ;
#195 = DIRECTION ( 'NONE',  ( 1.000000000000000000, 0.000000000000000000, 0.000000000000000000 ) ) ;
#196 = EDGE_LOOP ( 'NONE', ( #1, #73 ) ) ;
#197 = AXIS2_PLACEMENT_3D ( 'NONE', #107, #12, #29 ) ;
#198 = CALENDAR_DATE ( 2023, 12, 2 ) ;
#199 = CARTESIAN_POINT ( 'NONE',  ( 0.000000000000000000, 0.000000000000000000, 5.000000000000000000 ) ) ;
#200 = MECHANICAL_CONTEXT ( 'NONE', #245, 'mechanical' ) ;
#201 = CALENDAR_DATE ( 2023, 12, 2 ) ;
#202 = AXIS2_PLACEMENT_3D ( 'NONE', #234, #56, #212 ) ;
#203 = SHAPE_DEFINITION_REPRESENTATION ( #214, #74 ) ;
#204 = DIRECTION ( 'NONE',  ( -0.000000000000000000, -0.000000000000000000, -1.000000000000000000 ) ) ;
#205 = DIRECTION ( 'NONE',  ( 0.000000000000000000, 0.000000000000000000, 1.000000000000000000 ) ) ;
#206 = DATE_AND_TIME ( #47, #216 ) ;
#207 = ADVANCED_FACE ( 'NONE', ( #130 ), #112, .T. ) ;
#208 = CYLINDRICAL_SURFACE ( 'NONE', #9, 4.099999999999999645 ) ;
#209 = CYLINDRICAL_SURFACE ( 'NONE', #27, 7.000000000000000000 ) ;
#210 = DIRECTION ( 'NONE',  ( 0.000000000000000000, 0.000000000000000000, 1.000000000000000000 ) ) ;
#211 = CARTESIAN_POINT ( 'NONE',  ( -4.099999999999999645, 0.000000000000000000, 5.000000000000000000 ) ) ;
#212 = DIRECTION ( 'NONE',  ( -1.000000000000000000, 0.000000000000000000, 0.000000000000000000 ) ) ;
#213 = ORIENTED_EDGE ( 'NONE', *, *, #5, .T. ) ;
#214 = PRODUCT_DEFINITION_SHAPE ( 'NONE', 'NONE',  #167 ) ;
#215 = DATE_AND_TIME ( #161, #238 ) ;
#216 = LOCAL_TIME ( 12, 18, 53.00000000000000000, #86 ) ;
#217 = CC_DESIGN_DATE_AND_TIME_ASSIGNMENT ( #215, #242, ( #167 ) ) ;
#218 = FACE_OUTER_BOUND ( 'NONE', #233, .T. ) ;
#219 = CARTESIAN_POINT ( 'NONE',  ( 0.000000000000000000, 0.000000000000000000, 0.000000000000000000 ) ) ;
#220 = COORDINATED_UNIVERSAL_TIME_OFFSET ( 1, 0, .AHEAD. ) ;
#221 = DATE_AND_TIME ( #164, #57 ) ;
#222 = DIRECTION ( 'NONE',  ( -0.000000000000000000, -0.000000000000000000, -1.000000000000000000 ) ) ;
#223 = DIRECTION ( 'NONE',  ( 1.000000000000000000, 0.000000000000000000, 0.000000000000000000 ) ) ;
#224 = CARTESIAN_POINT ( 'NONE',  ( 7.000000000000000000, 8.572527594031473190E-16, 5.000000000000000000 ) ) ;
#225 = EDGE_LOOP ( 'NONE', ( #104, #255 ) ) ;
#226 = UNCERTAINTY_MEASURE_WITH_UNIT (LENGTH_MEASURE( 1.000000000000000082E-05 ), #159, 'distance_accuracy_value', 'NONE');
#227 = APPROVAL_DATE_TIME ( #206, #19 ) ;
#228 = DIRECTION ( 'NONE',  ( -0.000000000000000000, -0.000000000000000000, -1.000000000000000000 ) ) ;
#229 = CC_DESIGN_PERSON_AND_ORGANIZATION_ASSIGNMENT ( #92, #156, ( #42 ) ) ;
#230 = FACE_OUTER_BOUND ( 'NONE', #189, .T. ) ;
#231 = ORIENTED_EDGE ( 'NONE', *, *, #155, .T. ) ;
#232 = CC_DESIGN_APPROVAL ( #19, ( #18 ) ) ;
#233 = EDGE_LOOP ( 'NONE', ( #172, #213 ) ) ;
#234 = CARTESIAN_POINT ( 'NONE',  ( 0.000000000000000000, 0.000000000000000000, 100.0000000000000000 ) ) ;
#235 = AXIS2_PLACEMENT_3D ( 'NONE', #54, #170, #148 ) ;
#236 = ORIENTED_EDGE ( 'NONE', *, *, #62, .F. ) ;
#237 = COORDINATED_UNIVERSAL_TIME_OFFSET ( 1, 0, .AHEAD. ) ;
#238 = LOCAL_TIME ( 12, 18, 53.00000000000000000, #237 ) ;
#239 = FACE_OUTER_BOUND ( 'NONE', #90, .T. ) ;
#240 = DIRECTION ( 'NONE',  ( 0.000000000000000000, 0.000000000000000000, 1.000000000000000000 ) ) ;
#241 = DIRECTION ( 'NONE',  ( 1.000000000000000000, 0.000000000000000000, 0.000000000000000000 ) ) ;
#242 = DATE_TIME_ROLE ( 'creation_date' ) ;
#243 = AXIS2_PLACEMENT_3D ( 'NONE', #162, #78, #241 ) ;
#244 = CARTESIAN_POINT ( 'NONE',  ( 7.000000000000000000, 8.572527594031473190E-16, 5.000000000000000000 ) ) ;
#245 = APPLICATION_CONTEXT ( 'configuration controlled 3d designs of mechanical parts and assemblies' ) ;
#246 = CARTESIAN_POINT ( 'NONE',  ( 0.000000000000000000, 0.000000000000000000, 0.000000000000000000 ) ) ;
#247 = ORIENTED_EDGE ( 'NONE', *, *, #110, .F. ) ;
#248 = AXIS2_PLACEMENT_3D ( 'NONE', #251, #168, #87 ) ;
#249 = LINE ( 'NONE', #169, #193 ) ;
#250 = EDGE_LOOP ( 'NONE', ( #111, #72, #171, #75 ) ) ;
#251 = CARTESIAN_POINT ( 'NONE',  ( 0.000000000000000000, 0.000000000000000000, 0.000000000000000000 ) ) ;
#252 = EDGE_CURVE ( 'NONE', #105, #4, #96, .T. ) ;
#253 = ORIENTED_EDGE ( 'NONE', *, *, #182, .F. ) ;
#254 = ADVANCED_FACE ( 'NONE', ( #230 ), #60, .F. ) ;
#255 = ORIENTED_EDGE ( 'NONE', *, *, #252, .F. ) ;
ENDSEC;
END-ISO-10303-21;
