ISO-10303-21;
HEADER;
FILE_DESCRIPTION (( 'STEP AP203' ),
    '1' );
FILE_NAME ('08dd.STEP',
    '2023-02-12T11:39:30',
    ( '' ),
    ( '' ),
    'SwSTEP 2.0',
    'SolidWorks 2019',
    '' );
FILE_SCHEMA (( 'CONFIG_CONTROL_DESIGN' ));
ENDSEC;

DATA;
#1 = CIRCLE ( 'NONE', #174, 3.000000000000000444 ) ;
#2 = FACE_OUTER_BOUND ( 'NONE', #152, .T. ) ;
#3 = LOCAL_TIME ( 12, 39, 30.00000000000000000, #73 ) ;
#4 = LINE ( 'NONE', #166, #112 ) ;
#5 = CIRCLE ( 'NONE', #159, 3.000000000000000444 ) ;
#6 = DIRECTION ( 'NONE',  ( 1.000000000000000000, 0.000000000000000000, 0.000000000000000000 ) ) ;
#7 = CARTESIAN_POINT ( 'NONE',  ( 3.000000000000000444, 3.673940397442060361E-16, 5.000000000000000000 ) ) ;
#8 = ADVANCED_FACE ( 'NONE', ( #101 ), #122, .T. ) ;
#9 = DATE_AND_TIME ( #16, #222 ) ;
#10 = EDGE_CURVE ( 'NONE', #246, #158, #1, .T. ) ;
#11 = PERSON_AND_ORGANIZATION ( #210, #225 ) ;
#12 = PERSON_AND_ORGANIZATION ( #210, #225 ) ;
#13 = ORIENTED_EDGE ( 'NONE', *, *, #20, .T. ) ;
#14 = APPLICATION_CONTEXT ( 'configuration controlled 3d designs of mechanical parts and assemblies' ) ;
#15 = AXIS2_PLACEMENT_3D ( 'NONE', #84, #134, #160 ) ;
#16 = CALENDAR_DATE ( 2023, 12, 2 ) ;
#17 = CC_DESIGN_SECURITY_CLASSIFICATION ( #131, ( #196 ) ) ;
#18 = CARTESIAN_POINT ( 'NONE',  ( 3.000000000000000444, 3.673940397442060361E-16, 500.0000000000000000 ) ) ;
#19 = ORIENTED_EDGE ( 'NONE', *, *, #99, .F. ) ;
#20 = EDGE_CURVE ( 'NONE', #219, #51, #243, .T. ) ;
#21 = CARTESIAN_POINT ( 'NONE',  ( 0.000000000000000000, 0.000000000000000000, 500.0000000000000000 ) ) ;
#22 = LOCAL_TIME ( 12, 39, 30.00000000000000000, #97 ) ;
#23 = VERTEX_POINT ( 'NONE', #102 ) ;
#24 = DIRECTION ( 'NONE',  ( 1.000000000000000000, 0.000000000000000000, -0.000000000000000000 ) ) ;
#25 = CARTESIAN_POINT ( 'NONE',  ( -3.000000000000000444, 0.000000000000000000, 5.000000000000000000 ) ) ;
#26 = DIRECTION ( 'NONE',  ( -0.000000000000000000, -0.000000000000000000, -1.000000000000000000 ) ) ;
#27 = DIRECTION ( 'NONE',  ( 0.000000000000000000, 0.000000000000000000, 1.000000000000000000 ) ) ;
#28 = AXIS2_PLACEMENT_3D ( 'NONE', #105, #220, #107 ) ;
#29 = DIRECTION ( 'NONE',  ( 0.000000000000000000, 0.000000000000000000, 1.000000000000000000 ) ) ;
#30 = APPROVAL_DATE_TIME ( #113, #141 ) ;
#31 = EDGE_CURVE ( 'NONE', #214, #59, #33, .T. ) ;
#32 = APPROVAL_STATUS ( 'not_yet_approved' ) ;
#33 = CIRCLE ( 'NONE', #110, 6.000000000000000888 ) ;
#34 = CC_DESIGN_APPROVAL ( #141, ( #238 ) ) ;
#35 = DIRECTION ( 'NONE',  ( -0.000000000000000000, -0.000000000000000000, -1.000000000000000000 ) ) ;
#36 = APPLICATION_CONTEXT ( 'configuration controlled 3d designs of mechanical parts and assemblies' ) ;
#37 = ORIENTED_EDGE ( 'NONE', *, *, #78, .F. ) ;
#38 = CC_DESIGN_DATE_AND_TIME_ASSIGNMENT ( #147, #231, ( #131 ) ) ;
#39 = AXIS2_PLACEMENT_3D ( 'NONE', #253, #41, #61 ) ;
#40 = CARTESIAN_POINT ( 'NONE',  ( 6.000000000000000888, 7.347880794884120722E-16, 5.000000000000000000 ) ) ;
#41 = DIRECTION ( 'NONE',  ( 0.000000000000000000, 0.000000000000000000, 1.000000000000000000 ) ) ;
#42 = EDGE_LOOP ( 'NONE', ( #130, #49 ) ) ;
#43 = MECHANICAL_CONTEXT ( 'NONE', #36, 'mechanical' ) ;
#44 = CC_DESIGN_APPROVAL ( #103, ( #131 ) ) ;
#45 = CARTESIAN_POINT ( 'NONE',  ( 0.000000000000000000, 0.000000000000000000, 0.000000000000000000 ) ) ;
#46 = FACE_OUTER_BOUND ( 'NONE', #194, .T. ) ;
#47 = SECURITY_CLASSIFICATION_LEVEL ( 'unclassified' ) ;
#48 = ADVANCED_FACE ( 'NONE', ( #63, #81 ), #177, .T. ) ;
#49 = ORIENTED_EDGE ( 'NONE', *, *, #162, .T. ) ;
#50 = APPROVAL_STATUS ( 'not_yet_approved' ) ;
#51 = VERTEX_POINT ( 'NONE', #155 ) ;
#52 = COORDINATED_UNIVERSAL_TIME_OFFSET ( 1, 0, .AHEAD. ) ;
#53 = PERSON_AND_ORGANIZATION ( #210, #225 ) ;
#54 = EDGE_CURVE ( 'NONE', #23, #214, #205, .T. ) ;
#55 = APPROVAL_ROLE ( '' ) ;
#56 = ADVANCED_BREP_SHAPE_REPRESENTATION ( '08dd', ( #248, #98 ), #124 ) ;
#57 = ORIENTED_EDGE ( 'NONE', *, *, #199, .T. ) ;
#58 = DIRECTION ( 'NONE',  ( 0.000000000000000000, 0.000000000000000000, 1.000000000000000000 ) ) ;
#59 = VERTEX_POINT ( 'NONE', #202 ) ;
#60 = VECTOR ( 'NONE', #26, 1000.000000000000000 ) ;
#61 = DIRECTION ( 'NONE',  ( 1.000000000000000000, 0.000000000000000000, -0.000000000000000000 ) ) ;
#62 = PRODUCT_DEFINITION_SHAPE ( 'NONE', 'NONE',  #238 ) ;
#63 = FACE_BOUND ( 'NONE', #149, .T. ) ;
#64 = DIRECTION ( 'NONE',  ( -0.000000000000000000, -0.000000000000000000, -1.000000000000000000 ) ) ;
#65 = DIRECTION ( 'NONE',  ( 1.000000000000000000, 0.000000000000000000, 0.000000000000000000 ) ) ;
#66 = DESIGN_CONTEXT ( 'detailed design', #14, 'design' ) ;
#67 = CARTESIAN_POINT ( 'NONE',  ( 0.000000000000000000, 0.000000000000000000, 5.000000000000000000 ) ) ;
#68 = DIRECTION ( 'NONE',  ( -1.000000000000000000, 0.000000000000000000, 0.000000000000000000 ) ) ;
#69 = AXIS2_PLACEMENT_3D ( 'NONE', #223, #27, #163 ) ;
#70 = PERSON_AND_ORGANIZATION ( #210, #225 ) ;
#71 = UNCERTAINTY_MEASURE_WITH_UNIT (LENGTH_MEASURE( 1.000000000000000082E-05 ), #224, 'distance_accuracy_value', 'NONE');
#72 = CALENDAR_DATE ( 2023, 12, 2 ) ;
#73 = COORDINATED_UNIVERSAL_TIME_OFFSET ( 1, 0, .AHEAD. ) ;
#74 = PRODUCT_RELATED_PRODUCT_CATEGORY ( 'detail', '', ( #119 ) ) ;
#75 = COORDINATED_UNIVERSAL_TIME_OFFSET ( 1, 0, .AHEAD. ) ;
#76 = DIRECTION ( 'NONE',  ( 0.000000000000000000, 0.000000000000000000, 1.000000000000000000 ) ) ;
#77 = CLOSED_SHELL ( 'NONE', ( #189, #8, #213, #48, #170, #193, #82 ) ) ;
#78 = EDGE_CURVE ( 'NONE', #51, #158, #179, .T. ) ;
#79 = ORIENTED_EDGE ( 'NONE', *, *, #78, .T. ) ;
#80 = AXIS2_PLACEMENT_3D ( 'NONE', #67, #64, #143 ) ;
#81 = FACE_OUTER_BOUND ( 'NONE', #42, .T. ) ;
#82 = ADVANCED_FACE ( 'NONE', ( #157 ), #234, .T. ) ;
#83 = CIRCLE ( 'NONE', #138, 6.000000000000000888 ) ;
#84 = CARTESIAN_POINT ( 'NONE',  ( 0.000000000000000000, 0.000000000000000000, 500.0000000000000000 ) ) ;
#85 = APPROVAL_PERSON_ORGANIZATION ( #172, #178, #55 ) ;
#86 = DIRECTION ( 'NONE',  ( -0.000000000000000000, -0.000000000000000000, -1.000000000000000000 ) ) ;
#87 = EDGE_CURVE ( 'NONE', #51, #219, #5, .T. ) ;
#88 = DIRECTION ( 'NONE',  ( -1.000000000000000000, 0.000000000000000000, 0.000000000000000000 ) ) ;
#89 = CYLINDRICAL_SURFACE ( 'NONE', #230, 3.000000000000000444 ) ;
#90 = CC_DESIGN_DATE_AND_TIME_ASSIGNMENT ( #129, #249, ( #238 ) ) ;
#91 = CALENDAR_DATE ( 2023, 12, 2 ) ;
#92 = PERSON_AND_ORGANIZATION ( #210, #225 ) ;
#93 = PERSON_AND_ORGANIZATION_ROLE ( 'creator' ) ;
#94 = PERSON_AND_ORGANIZATION ( #210, #225 ) ;
#95 = EDGE_CURVE ( 'NONE', #59, #214, #83, .T. ) ;
#96 = ORIENTED_EDGE ( 'NONE', *, *, #162, .F. ) ;
#97 = COORDINATED_UNIVERSAL_TIME_OFFSET ( 1, 0, .AHEAD. ) ;
#98 = AXIS2_PLACEMENT_3D ( 'NONE', #45, #125, #6 ) ;
#99 = EDGE_CURVE ( 'NONE', #232, #59, #116, .T. ) ;
#100 = CARTESIAN_POINT ( 'NONE',  ( 0.000000000000000000, 0.000000000000000000, 5.000000000000000000 ) ) ;
#101 = FACE_OUTER_BOUND ( 'NONE', #197, .T. ) ;
#102 = CARTESIAN_POINT ( 'NONE',  ( 6.000000000000000888, 7.347880794884120722E-16, 5.000000000000000000 ) ) ;
#103 = APPROVAL ( #128, 'NEURÈENÝ' ) ;
#104 = DIRECTION ( 'NONE',  ( 0.000000000000000000, 0.000000000000000000, 1.000000000000000000 ) ) ;
#105 = CARTESIAN_POINT ( 'NONE',  ( 0.000000000000000000, 0.000000000000000000, 0.000000000000000000 ) ) ;
#106 = CC_DESIGN_PERSON_AND_ORGANIZATION_ASSIGNMENT ( #92, #151, ( #131 ) ) ;
#107 = DIRECTION ( 'NONE',  ( 1.000000000000000000, 0.000000000000000000, -0.000000000000000000 ) ) ;
#108 = CARTESIAN_POINT ( 'NONE',  ( -6.000000000000000888, 0.000000000000000000, 5.000000000000000000 ) ) ;
#109 = ORIENTED_EDGE ( 'NONE', *, *, #31, .T. ) ;
#110 = AXIS2_PLACEMENT_3D ( 'NONE', #135, #58, #212 ) ;
#111 = COORDINATED_UNIVERSAL_TIME_OFFSET ( 1, 0, .AHEAD. ) ;
#112 = VECTOR ( 'NONE', #207, 1000.000000000000000 ) ;
#113 = DATE_AND_TIME ( #192, #3 ) ;
#114 = ORIENTED_EDGE ( 'NONE', *, *, #20, .F. ) ;
#115 = PERSON_AND_ORGANIZATION ( #210, #225 ) ;
#116 = LINE ( 'NONE', #108, #60 ) ;
#117 = ORIENTED_EDGE ( 'NONE', *, *, #95, .T. ) ;
#118 = ORIENTED_EDGE ( 'NONE', *, *, #99, .T. ) ;
#119 = PRODUCT ( '08dd', '08dd', '', ( #43 ) ) ;
#120 = CC_DESIGN_PERSON_AND_ORGANIZATION_ASSIGNMENT ( #70, #93, ( #196 ) ) ;
#121 = ORIENTED_EDGE ( 'NONE', *, *, #54, .F. ) ;
#122 = CYLINDRICAL_SURFACE ( 'NONE', #188, 6.000000000000000888 ) ;
#123 =( NAMED_UNIT ( * ) SI_UNIT ( $, .STERADIAN. ) SOLID_ANGLE_UNIT ( ) );
#124 =( GEOMETRIC_REPRESENTATION_CONTEXT ( 3 ) GLOBAL_UNCERTAINTY_ASSIGNED_CONTEXT ( ( #71 ) ) GLOBAL_UNIT_ASSIGNED_CONTEXT ( ( #224, #237, #123 ) ) REPRESENTATION_CONTEXT ( 'NONE', 'WORKASPACE' ) );
#125 = DIRECTION ( 'NONE',  ( 0.000000000000000000, 0.000000000000000000, 1.000000000000000000 ) ) ;
#126 = CARTESIAN_POINT ( 'NONE',  ( 0.000000000000000000, 0.000000000000000000, 500.0000000000000000 ) ) ;
#127 = CARTESIAN_POINT ( 'NONE',  ( 0.000000000000000000, 0.000000000000000000, 5.000000000000000000 ) ) ;
#128 = APPROVAL_STATUS ( 'not_yet_approved' ) ;
#129 = DATE_AND_TIME ( #72, #171 ) ;
#130 = ORIENTED_EDGE ( 'NONE', *, *, #221, .T. ) ;
#131 = SECURITY_CLASSIFICATION ( '', '', #47 ) ;
#132 = CALENDAR_DATE ( 2023, 12, 2 ) ;
#133 = DATE_AND_TIME ( #132, #22 ) ;
#134 = DIRECTION ( 'NONE',  ( 0.000000000000000000, 0.000000000000000000, 1.000000000000000000 ) ) ;
#135 = CARTESIAN_POINT ( 'NONE',  ( 0.000000000000000000, 0.000000000000000000, 0.000000000000000000 ) ) ;
#136 = DIRECTION ( 'NONE',  ( -0.000000000000000000, -0.000000000000000000, -1.000000000000000000 ) ) ;
#137 = CC_DESIGN_PERSON_AND_ORGANIZATION_ASSIGNMENT ( #12, #245, ( #119 ) ) ;
#138 = AXIS2_PLACEMENT_3D ( 'NONE', #250, #76, #154 ) ;
#139 = ORIENTED_EDGE ( 'NONE', *, *, #10, .T. ) ;
#140 = EDGE_LOOP ( 'NONE', ( #121, #200, #118, #117 ) ) ;
#141 = APPROVAL ( #32, 'NEURÈENÝ' ) ;
#142 = CARTESIAN_POINT ( 'NONE',  ( -6.000000000000000888, 0.000000000000000000, 5.000000000000000000 ) ) ;
#143 = DIRECTION ( 'NONE',  ( -1.000000000000000000, 0.000000000000000000, 0.000000000000000000 ) ) ;
#144 = CC_DESIGN_PERSON_AND_ORGANIZATION_ASSIGNMENT ( #94, #195, ( #238 ) ) ;
#145 = APPROVAL_PERSON_ORGANIZATION ( #115, #141, #175 ) ;
#146 = EDGE_LOOP ( 'NONE', ( #13, #173 ) ) ;
#147 = DATE_AND_TIME ( #91, #180 ) ;
#148 = CC_DESIGN_PERSON_AND_ORGANIZATION_ASSIGNMENT ( #11, #211, ( #196 ) ) ;
#149 = EDGE_LOOP ( 'NONE', ( #254, #226 ) ) ;
#150 = ORIENTED_EDGE ( 'NONE', *, *, #54, .T. ) ;
#151 = PERSON_AND_ORGANIZATION_ROLE ( 'classification_officer' ) ;
#152 = EDGE_LOOP ( 'NONE', ( #228, #182 ) ) ;
#153 = APPROVAL_DATE_TIME ( #9, #178 ) ;
#154 = DIRECTION ( 'NONE',  ( 1.000000000000000000, 0.000000000000000000, 0.000000000000000000 ) ) ;
#155 = CARTESIAN_POINT ( 'NONE',  ( 3.000000000000000444, 3.673940397442060361E-16, 500.0000000000000000 ) ) ;
#156 = APPROVAL_PERSON_ORGANIZATION ( #53, #103, #227 ) ;
#157 = FACE_OUTER_BOUND ( 'NONE', #146, .T. ) ;
#158 = VERTEX_POINT ( 'NONE', #7 ) ;
#159 = AXIS2_PLACEMENT_3D ( 'NONE', #21, #104, #181 ) ;
#160 = DIRECTION ( 'NONE',  ( 1.000000000000000000, 0.000000000000000000, 0.000000000000000000 ) ) ;
#161 = AXIS2_PLACEMENT_3D ( 'NONE', #208, #29, #65 ) ;
#162 = EDGE_CURVE ( 'NONE', #23, #232, #216, .T. ) ;
#163 = DIRECTION ( 'NONE',  ( 1.000000000000000000, 0.000000000000000000, 0.000000000000000000 ) ) ;
#164 = CARTESIAN_POINT ( 'NONE',  ( 6.000000000000000888, 7.347880794884120722E-16, 0.000000000000000000 ) ) ;
#165 = VECTOR ( 'NONE', #236, 1000.000000000000000 ) ;
#166 = CARTESIAN_POINT ( 'NONE',  ( -3.000000000000000444, 0.000000000000000000, 500.0000000000000000 ) ) ;
#167 = PLANE ( 'NONE',  #28 ) ;
#168 = CYLINDRICAL_SURFACE ( 'NONE', #240, 3.000000000000000444 ) ;
#169 = APPROVAL_DATE_TIME ( #133, #103 ) ;
#170 = ADVANCED_FACE ( 'NONE', ( #2 ), #167, .F. ) ;
#171 = LOCAL_TIME ( 12, 39, 30.00000000000000000, #52 ) ;
#172 = PERSON_AND_ORGANIZATION ( #210, #225 ) ;
#173 = ORIENTED_EDGE ( 'NONE', *, *, #87, .T. ) ;
#174 = AXIS2_PLACEMENT_3D ( 'NONE', #206, #255, #203 ) ;
#175 = APPROVAL_ROLE ( '' ) ;
#176 = ORIENTED_EDGE ( 'NONE', *, *, #87, .F. ) ;
#177 = PLANE ( 'NONE',  #39 ) ;
#178 = APPROVAL ( #50, 'NEURÈENÝ' ) ;
#179 = LINE ( 'NONE', #18, #165 ) ;
#180 = LOCAL_TIME ( 12, 39, 30.00000000000000000, #111 ) ;
#181 = DIRECTION ( 'NONE',  ( 1.000000000000000000, 0.000000000000000000, 0.000000000000000000 ) ) ;
#182 = ORIENTED_EDGE ( 'NONE', *, *, #31, .F. ) ;
#183 = AXIS2_PLACEMENT_3D ( 'NONE', #127, #242, #191 ) ;
#184 = FACE_OUTER_BOUND ( 'NONE', #140, .T. ) ;
#185 = CIRCLE ( 'NONE', #69, 6.000000000000000888 ) ;
#186 = CYLINDRICAL_SURFACE ( 'NONE', #80, 6.000000000000000888 ) ;
#187 = FACE_OUTER_BOUND ( 'NONE', #217, .T. ) ;
#188 = AXIS2_PLACEMENT_3D ( 'NONE', #100, #136, #235 ) ;
#189 = ADVANCED_FACE ( 'NONE', ( #46 ), #89, .T. ) ;
#190 = CARTESIAN_POINT ( 'NONE',  ( 0.000000000000000000, 0.000000000000000000, 500.0000000000000000 ) ) ;
#191 = DIRECTION ( 'NONE',  ( 1.000000000000000000, 0.000000000000000000, 0.000000000000000000 ) ) ;
#192 = CALENDAR_DATE ( 2023, 12, 2 ) ;
#193 = ADVANCED_FACE ( 'NONE', ( #187 ), #168, .T. ) ;
#194 = EDGE_LOOP ( 'NONE', ( #176, #79, #57, #215 ) ) ;
#195 = PERSON_AND_ORGANIZATION_ROLE ( 'creator' ) ;
#196 = PRODUCT_DEFINITION_FORMATION_WITH_SPECIFIED_SOURCE ( 'LIBOVOLNÝ', '', #119, .NOT_KNOWN. ) ;
#197 = EDGE_LOOP ( 'NONE', ( #96, #150, #109, #19 ) ) ;
#198 = APPLICATION_PROTOCOL_DEFINITION ( 'international standard', 'config_control_design', 1994, #14 ) ;
#199 = EDGE_CURVE ( 'NONE', #158, #246, #204, .T. ) ;
#200 = ORIENTED_EDGE ( 'NONE', *, *, #221, .F. ) ;
#201 = EDGE_CURVE ( 'NONE', #219, #246, #4, .T. ) ;
#202 = CARTESIAN_POINT ( 'NONE',  ( -6.000000000000000888, 0.000000000000000000, 0.000000000000000000 ) ) ;
#203 = DIRECTION ( 'NONE',  ( 1.000000000000000000, 0.000000000000000000, 0.000000000000000000 ) ) ;
#204 = CIRCLE ( 'NONE', #161, 3.000000000000000444 ) ;
#205 = LINE ( 'NONE', #40, #251 ) ;
#206 = CARTESIAN_POINT ( 'NONE',  ( 0.000000000000000000, 0.000000000000000000, 5.000000000000000000 ) ) ;
#207 = DIRECTION ( 'NONE',  ( -0.000000000000000000, -0.000000000000000000, -1.000000000000000000 ) ) ;
#208 = CARTESIAN_POINT ( 'NONE',  ( 0.000000000000000000, 0.000000000000000000, 5.000000000000000000 ) ) ;
#209 = CARTESIAN_POINT ( 'NONE',  ( -3.000000000000000444, 0.000000000000000000, 500.0000000000000000 ) ) ;
#210 = PERSON ( 'NEURÈENÝ', 'NEURÈENÝ', 'NEURÈENÝ', ('NEURÈENÝ'), ('NEURÈENÝ'), ('NEURÈENÝ') ) ;
#211 = PERSON_AND_ORGANIZATION_ROLE ( 'design_supplier' ) ;
#212 = DIRECTION ( 'NONE',  ( 1.000000000000000000, 0.000000000000000000, 0.000000000000000000 ) ) ;
#213 = ADVANCED_FACE ( 'NONE', ( #184 ), #186, .T. ) ;
#214 = VERTEX_POINT ( 'NONE', #164 ) ;
#215 = ORIENTED_EDGE ( 'NONE', *, *, #201, .F. ) ;
#216 = CIRCLE ( 'NONE', #183, 6.000000000000000888 ) ;
#217 = EDGE_LOOP ( 'NONE', ( #37, #114, #229, #139 ) ) ;
#218 = CC_DESIGN_APPROVAL ( #178, ( #196 ) ) ;
#219 = VERTEX_POINT ( 'NONE', #209 ) ;
#220 = DIRECTION ( 'NONE',  ( 0.000000000000000000, 0.000000000000000000, 1.000000000000000000 ) ) ;
#221 = EDGE_CURVE ( 'NONE', #232, #23, #185, .T. ) ;
#222 = LOCAL_TIME ( 12, 39, 30.00000000000000000, #75 ) ;
#223 = CARTESIAN_POINT ( 'NONE',  ( 0.000000000000000000, 0.000000000000000000, 5.000000000000000000 ) ) ;
#224 =( LENGTH_UNIT ( ) NAMED_UNIT ( * ) SI_UNIT ( .MILLI., .METRE. ) );
#225 = ORGANIZATION ( 'NEURÈENÝ', 'NEURÈENÝ', '' ) ;
#226 = ORIENTED_EDGE ( 'NONE', *, *, #199, .F. ) ;
#227 = APPROVAL_ROLE ( '' ) ;
#228 = ORIENTED_EDGE ( 'NONE', *, *, #95, .F. ) ;
#229 = ORIENTED_EDGE ( 'NONE', *, *, #201, .T. ) ;
#230 = AXIS2_PLACEMENT_3D ( 'NONE', #190, #241, #68 ) ;
#231 = DATE_TIME_ROLE ( 'classification_date' ) ;
#232 = VERTEX_POINT ( 'NONE', #142 ) ;
#233 = CARTESIAN_POINT ( 'NONE',  ( 0.000000000000000000, 0.000000000000000000, 500.0000000000000000 ) ) ;
#234 = PLANE ( 'NONE',  #247 ) ;
#235 = DIRECTION ( 'NONE',  ( -1.000000000000000000, 0.000000000000000000, 0.000000000000000000 ) ) ;
#236 = DIRECTION ( 'NONE',  ( -0.000000000000000000, -0.000000000000000000, -1.000000000000000000 ) ) ;
#237 =( NAMED_UNIT ( * ) PLANE_ANGLE_UNIT ( ) SI_UNIT ( $, .RADIAN. ) );
#238 = PRODUCT_DEFINITION ( 'NEZNÁMÝ', '', #196, #66 ) ;
#239 = APPLICATION_PROTOCOL_DEFINITION ( 'international standard', 'config_control_design', 1994, #36 ) ;
#240 = AXIS2_PLACEMENT_3D ( 'NONE', #126, #86, #88 ) ;
#241 = DIRECTION ( 'NONE',  ( -0.000000000000000000, -0.000000000000000000, -1.000000000000000000 ) ) ;
#242 = DIRECTION ( 'NONE',  ( 0.000000000000000000, 0.000000000000000000, 1.000000000000000000 ) ) ;
#243 = CIRCLE ( 'NONE', #15, 3.000000000000000444 ) ;
#244 = SHAPE_DEFINITION_REPRESENTATION ( #62, #56 ) ;
#245 = PERSON_AND_ORGANIZATION_ROLE ( 'design_owner' ) ;
#246 = VERTEX_POINT ( 'NONE', #25 ) ;
#247 = AXIS2_PLACEMENT_3D ( 'NONE', #233, #252, #24 ) ;
#248 = MANIFOLD_SOLID_BREP ( 'Pøidat vysunutím3', #77 ) ;
#249 = DATE_TIME_ROLE ( 'creation_date' ) ;
#250 = CARTESIAN_POINT ( 'NONE',  ( 0.000000000000000000, 0.000000000000000000, 0.000000000000000000 ) ) ;
#251 = VECTOR ( 'NONE', #35, 1000.000000000000000 ) ;
#252 = DIRECTION ( 'NONE',  ( 0.000000000000000000, 0.000000000000000000, 1.000000000000000000 ) ) ;
#253 = CARTESIAN_POINT ( 'NONE',  ( 0.000000000000000000, 0.000000000000000000, 5.000000000000000000 ) ) ;
#254 = ORIENTED_EDGE ( 'NONE', *, *, #10, .F. ) ;
#255 = DIRECTION ( 'NONE',  ( 0.000000000000000000, 0.000000000000000000, 1.000000000000000000 ) ) ;
ENDSEC;
END-ISO-10303-21;
