ISO-10303-21;
HEADER;
FILE_DESCRIPTION (( 'STEP AP203' ),
    '1' );
FILE_NAME ('1a4d.STEP',
    '2023-02-12T10:35:47',
    ( '' ),
    ( '' ),
    'SwSTEP 2.0',
    'SolidWorks 2019',
    '' );
FILE_SCHEMA (( 'CONFIG_CONTROL_DESIGN' ));
ENDSEC;

DATA;
#1 = DIRECTION ( 'NONE',  ( -0.000000000000000000, -0.000000000000000000, -1.000000000000000000 ) ) ;
#2 = CIRCLE ( 'NONE', #141, 10.00000000000000178 ) ;
#3 = EDGE_CURVE ( 'NONE', #247, #51, #227, .T. ) ;
#4 = DIRECTION ( 'NONE',  ( 1.000000000000000000, 0.000000000000000000, 0.000000000000000000 ) ) ;
#5 = CARTESIAN_POINT ( 'NONE',  ( 0.000000000000000000, 0.000000000000000000, 8.000000000000000000 ) ) ;
#6 = ADVANCED_FACE ( 'NONE', ( #239 ), #122, .T. ) ;
#7 = CLOSED_SHELL ( 'NONE', ( #180, #6, #54, #80, #78, #48, #117 ) ) ;
#8 = DIRECTION ( 'NONE',  ( 1.000000000000000000, 0.000000000000000000, -0.000000000000000000 ) ) ;
#9 = PERSON_AND_ORGANIZATION_ROLE ( 'design_supplier' ) ;
#10 = ORIENTED_EDGE ( 'NONE', *, *, #3, .F. ) ;
#11 = PERSON_AND_ORGANIZATION ( #28, #96 ) ;
#12 = ORIENTED_EDGE ( 'NONE', *, *, #139, .F. ) ;
#13 = DATE_TIME_ROLE ( 'classification_date' ) ;
#14 = ORIENTED_EDGE ( 'NONE', *, *, #188, .T. ) ;
#15 = SECURITY_CLASSIFICATION ( '', '', #248 ) ;
#16 = APPROVAL_DATE_TIME ( #202, #62 ) ;
#17 = CC_DESIGN_PERSON_AND_ORGANIZATION_ASSIGNMENT ( #90, #140, ( #15 ) ) ;
#18 = CARTESIAN_POINT ( 'NONE',  ( 0.000000000000000000, 0.000000000000000000, 8.000000000000000000 ) ) ;
#19 = APPLICATION_CONTEXT ( 'configuration controlled 3d designs of mechanical parts and assemblies' ) ;
#20 = ORIENTED_EDGE ( 'NONE', *, *, #68, .T. ) ;
#21 = PLANE ( 'NONE',  #82 ) ;
#22 =( NAMED_UNIT ( * ) SI_UNIT ( $, .STERADIAN. ) SOLID_ANGLE_UNIT ( ) );
#23 = LOCAL_TIME ( 11, 35, 47.00000000000000000, #178 ) ;
#24 = CARTESIAN_POINT ( 'NONE',  ( -13.00000000000000178, 0.000000000000000000, 0.000000000000000000 ) ) ;
#25 = CARTESIAN_POINT ( 'NONE',  ( 0.000000000000000000, 0.000000000000000000, 315.0000000000000000 ) ) ;
#26 = LOCAL_TIME ( 11, 35, 47.00000000000000000, #31 ) ;
#27 = CARTESIAN_POINT ( 'NONE',  ( 0.000000000000000000, 0.000000000000000000, 315.0000000000000000 ) ) ;
#28 = PERSON ( 'NEURÈENÝ', 'NEURÈENÝ', 'NEURÈENÝ', ('NEURÈENÝ'), ('NEURÈENÝ'), ('NEURÈENÝ') ) ;
#29 = APPROVAL_ROLE ( '' ) ;
#30 = EDGE_LOOP ( 'NONE', ( #119, #12 ) ) ;
#31 = COORDINATED_UNIVERSAL_TIME_OFFSET ( 1, 0, .AHEAD. ) ;
#32 = PERSON_AND_ORGANIZATION ( #28, #96 ) ;
#33 = CC_DESIGN_PERSON_AND_ORGANIZATION_ASSIGNMENT ( #163, #250, ( #162 ) ) ;
#34 = ORIENTED_EDGE ( 'NONE', *, *, #206, .T. ) ;
#35 = EDGE_LOOP ( 'NONE', ( #138, #20 ) ) ;
#36 = DIRECTION ( 'NONE',  ( 0.000000000000000000, 0.000000000000000000, 1.000000000000000000 ) ) ;
#37 = DIRECTION ( 'NONE',  ( -0.000000000000000000, -0.000000000000000000, -1.000000000000000000 ) ) ;
#38 = PRODUCT_RELATED_PRODUCT_CATEGORY ( 'detail', '', ( #162 ) ) ;
#39 = CARTESIAN_POINT ( 'NONE',  ( 0.000000000000000000, 0.000000000000000000, 8.000000000000000000 ) ) ;
#40 = CARTESIAN_POINT ( 'NONE',  ( 0.000000000000000000, 0.000000000000000000, 0.000000000000000000 ) ) ;
#41 = APPROVAL ( #97, 'NEURÈENÝ' ) ;
#42 = DIRECTION ( 'NONE',  ( 1.000000000000000000, 0.000000000000000000, 0.000000000000000000 ) ) ;
#43 = DIRECTION ( 'NONE',  ( 0.000000000000000000, 0.000000000000000000, 1.000000000000000000 ) ) ;
#44 = CARTESIAN_POINT ( 'NONE',  ( 10.00000000000000178, 1.224646799147353454E-15, 315.0000000000000000 ) ) ;
#45 = APPLICATION_CONTEXT ( 'configuration controlled 3d designs of mechanical parts and assemblies' ) ;
#46 = CALENDAR_DATE ( 2023, 12, 2 ) ;
#47 = APPROVAL_DATE_TIME ( #246, #41 ) ;
#48 = ADVANCED_FACE ( 'NONE', ( #207 ), #103, .T. ) ;
#49 = ORIENTED_EDGE ( 'NONE', *, *, #175, .F. ) ;
#50 = COORDINATED_UNIVERSAL_TIME_OFFSET ( 1, 0, .AHEAD. ) ;
#51 = VERTEX_POINT ( 'NONE', #79 ) ;
#52 = PERSON_AND_ORGANIZATION_ROLE ( 'creator' ) ;
#53 = ORIENTED_EDGE ( 'NONE', *, *, #139, .T. ) ;
#54 = ADVANCED_FACE ( 'NONE', ( #169 ), #150, .T. ) ;
#55 = ORIENTED_EDGE ( 'NONE', *, *, #3, .T. ) ;
#56 = AXIS2_PLACEMENT_3D ( 'NONE', #27, #111, #196 ) ;
#57 = CARTESIAN_POINT ( 'NONE',  ( 0.000000000000000000, 0.000000000000000000, 8.000000000000000000 ) ) ;
#58 = DIRECTION ( 'NONE',  ( 1.000000000000000000, 0.000000000000000000, 0.000000000000000000 ) ) ;
#59 = DIRECTION ( 'NONE',  ( -1.000000000000000000, 0.000000000000000000, 0.000000000000000000 ) ) ;
#60 = CIRCLE ( 'NONE', #81, 10.00000000000000178 ) ;
#61 = DIRECTION ( 'NONE',  ( -0.000000000000000000, -0.000000000000000000, -1.000000000000000000 ) ) ;
#62 = APPROVAL ( #115, 'NEURÈENÝ' ) ;
#63 = AXIS2_PLACEMENT_3D ( 'NONE', #205, #37, #59 ) ;
#64 = DIRECTION ( 'NONE',  ( -1.000000000000000000, 0.000000000000000000, 0.000000000000000000 ) ) ;
#65 = DIRECTION ( 'NONE',  ( -0.000000000000000000, -0.000000000000000000, -1.000000000000000000 ) ) ;
#66 = UNCERTAINTY_MEASURE_WITH_UNIT (LENGTH_MEASURE( 1.000000000000000082E-05 ), #83, 'distance_accuracy_value', 'NONE');
#67 = CARTESIAN_POINT ( 'NONE',  ( 0.000000000000000000, 0.000000000000000000, 0.000000000000000000 ) ) ;
#68 = EDGE_CURVE ( 'NONE', #145, #249, #241, .T. ) ;
#69 = DIRECTION ( 'NONE',  ( -0.000000000000000000, -0.000000000000000000, -1.000000000000000000 ) ) ;
#70 = CARTESIAN_POINT ( 'NONE',  ( 10.00000000000000178, 1.224646799147353454E-15, 315.0000000000000000 ) ) ;
#71 = AXIS2_PLACEMENT_3D ( 'NONE', #108, #194, #4 ) ;
#72 = EDGE_LOOP ( 'NONE', ( #91, #55 ) ) ;
#73 = VERTEX_POINT ( 'NONE', #152 ) ;
#74 = CALENDAR_DATE ( 2023, 12, 2 ) ;
#75 = ORIENTED_EDGE ( 'NONE', *, *, #211, .F. ) ;
#76 = COORDINATED_UNIVERSAL_TIME_OFFSET ( 1, 0, .AHEAD. ) ;
#77 = CARTESIAN_POINT ( 'NONE',  ( 0.000000000000000000, 0.000000000000000000, 8.000000000000000000 ) ) ;
#78 = ADVANCED_FACE ( 'NONE', ( #226 ), #21, .F. ) ;
#79 = CARTESIAN_POINT ( 'NONE',  ( -13.00000000000000178, 0.000000000000000000, 8.000000000000000000 ) ) ;
#80 = ADVANCED_FACE ( 'NONE', ( #93, #182 ), #168, .T. ) ;
#81 = AXIS2_PLACEMENT_3D ( 'NONE', #5, #177, #42 ) ;
#82 = AXIS2_PLACEMENT_3D ( 'NONE', #40, #171, #157 ) ;
#83 =( LENGTH_UNIT ( ) NAMED_UNIT ( * ) SI_UNIT ( .MILLI., .METRE. ) );
#84 = EDGE_CURVE ( 'NONE', #51, #247, #121, .T. ) ;
#85 = LOCAL_TIME ( 11, 35, 47.00000000000000000, #235 ) ;
#86 = LOCAL_TIME ( 11, 35, 47.00000000000000000, #76 ) ;
#87 = PLANE ( 'NONE',  #161 ) ;
#88 = CARTESIAN_POINT ( 'NONE',  ( 0.000000000000000000, 0.000000000000000000, 0.000000000000000000 ) ) ;
#89 = CC_DESIGN_DATE_AND_TIME_ASSIGNMENT ( #218, #13, ( #15 ) ) ;
#90 = PERSON_AND_ORGANIZATION ( #28, #96 ) ;
#91 = ORIENTED_EDGE ( 'NONE', *, *, #84, .T. ) ;
#92 = CALENDAR_DATE ( 2023, 12, 2 ) ;
#93 = FACE_BOUND ( 'NONE', #203, .T. ) ;
#94 = PERSON_AND_ORGANIZATION ( #28, #96 ) ;
#95 = ORIENTED_EDGE ( 'NONE', *, *, #188, .F. ) ;
#96 = ORGANIZATION ( 'NEURÈENÝ', 'NEURÈENÝ', '' ) ;
#97 = APPROVAL_STATUS ( 'not_yet_approved' ) ;
#98 = ORIENTED_EDGE ( 'NONE', *, *, #107, .F. ) ;
#99 = AXIS2_PLACEMENT_3D ( 'NONE', #123, #1, #189 ) ;
#100 = EDGE_LOOP ( 'NONE', ( #215, #236, #166, #34 ) ) ;
#101 = PRODUCT_DEFINITION_SHAPE ( 'NONE', 'NONE',  #198 ) ;
#102 = DIRECTION ( 'NONE',  ( 0.000000000000000000, 0.000000000000000000, 1.000000000000000000 ) ) ;
#103 = CYLINDRICAL_SURFACE ( 'NONE', #99, 10.00000000000000178 ) ;
#104 = DIRECTION ( 'NONE',  ( -1.000000000000000000, 0.000000000000000000, 0.000000000000000000 ) ) ;
#105 = CIRCLE ( 'NONE', #144, 13.00000000000000178 ) ;
#106 = DIRECTION ( 'NONE',  ( -0.000000000000000000, -0.000000000000000000, -1.000000000000000000 ) ) ;
#107 = EDGE_CURVE ( 'NONE', #73, #234, #2, .T. ) ;
#108 = CARTESIAN_POINT ( 'NONE',  ( 0.000000000000000000, 0.000000000000000000, 0.000000000000000000 ) ) ;
#109 = CARTESIAN_POINT ( 'NONE',  ( -13.00000000000000178, 0.000000000000000000, 8.000000000000000000 ) ) ;
#110 = CC_DESIGN_SECURITY_CLASSIFICATION ( #15, ( #245 ) ) ;
#111 = DIRECTION ( 'NONE',  ( 0.000000000000000000, 0.000000000000000000, 1.000000000000000000 ) ) ;
#112 = CC_DESIGN_DATE_AND_TIME_ASSIGNMENT ( #160, #118, ( #198 ) ) ;
#113 = CALENDAR_DATE ( 2023, 12, 2 ) ;
#114 = APPROVAL_STATUS ( 'not_yet_approved' ) ;
#115 = APPROVAL_STATUS ( 'not_yet_approved' ) ;
#116 = EDGE_LOOP ( 'NONE', ( #200, #185, #14, #120 ) ) ;
#117 = ADVANCED_FACE ( 'NONE', ( #176 ), #87, .T. ) ;
#118 = DATE_TIME_ROLE ( 'creation_date' ) ;
#119 = ORIENTED_EDGE ( 'NONE', *, *, #206, .F. ) ;
#120 = ORIENTED_EDGE ( 'NONE', *, *, #208, .F. ) ;
#121 = CIRCLE ( 'NONE', #219, 13.00000000000000178 ) ;
#122 = CYLINDRICAL_SURFACE ( 'NONE', #63, 13.00000000000000178 ) ;
#123 = CARTESIAN_POINT ( 'NONE',  ( 0.000000000000000000, 0.000000000000000000, 315.0000000000000000 ) ) ;
#124 = AXIS2_PLACEMENT_3D ( 'NONE', #88, #156, #129 ) ;
#125 =( NAMED_UNIT ( * ) PLANE_ANGLE_UNIT ( ) SI_UNIT ( $, .RADIAN. ) );
#126 = CC_DESIGN_APPROVAL ( #62, ( #245 ) ) ;
#127 = CARTESIAN_POINT ( 'NONE',  ( 13.00000000000000178, 1.592040838891559293E-15, 8.000000000000000000 ) ) ;
#128 = EDGE_CURVE ( 'NONE', #247, #143, #228, .T. ) ;
#129 = DIRECTION ( 'NONE',  ( 1.000000000000000000, 0.000000000000000000, 0.000000000000000000 ) ) ;
#130 = LINE ( 'NONE', #229, #238 ) ;
#131 = CARTESIAN_POINT ( 'NONE',  ( -10.00000000000000178, 0.000000000000000000, 315.0000000000000000 ) ) ;
#132 = CC_DESIGN_APPROVAL ( #167, ( #198 ) ) ;
#133 = APPROVAL_ROLE ( '' ) ;
#134 = AXIS2_PLACEMENT_3D ( 'NONE', #148, #102, #190 ) ;
#135 = SHAPE_DEFINITION_REPRESENTATION ( #101, #137 ) ;
#136 = ORIENTED_EDGE ( 'NONE', *, *, #107, .T. ) ;
#137 = ADVANCED_BREP_SHAPE_REPRESENTATION ( '1a4d', ( #201, #71 ), #242 ) ;
#138 = ORIENTED_EDGE ( 'NONE', *, *, #252, .T. ) ;
#139 = EDGE_CURVE ( 'NONE', #143, #253, #105, .T. ) ;
#140 = PERSON_AND_ORGANIZATION_ROLE ( 'classification_officer' ) ;
#141 = AXIS2_PLACEMENT_3D ( 'NONE', #39, #153, #191 ) ;
#142 = APPROVAL_ROLE ( '' ) ;
#143 = VERTEX_POINT ( 'NONE', #213 ) ;
#144 = AXIS2_PLACEMENT_3D ( 'NONE', #67, #43, #244 ) ;
#145 = VERTEX_POINT ( 'NONE', #70 ) ;
#146 = VECTOR ( 'NONE', #230, 1000.000000000000000 ) ;
#147 = DESIGN_CONTEXT ( 'detailed design', #19, 'design' ) ;
#148 = CARTESIAN_POINT ( 'NONE',  ( 0.000000000000000000, 0.000000000000000000, 315.0000000000000000 ) ) ;
#149 = DIRECTION ( 'NONE',  ( 1.000000000000000000, 0.000000000000000000, -0.000000000000000000 ) ) ;
#150 = CYLINDRICAL_SURFACE ( 'NONE', #192, 13.00000000000000178 ) ;
#151 = CC_DESIGN_PERSON_AND_ORGANIZATION_ASSIGNMENT ( #204, #231, ( #198 ) ) ;
#152 = CARTESIAN_POINT ( 'NONE',  ( -10.00000000000000178, 0.000000000000000000, 8.000000000000000000 ) ) ;
#153 = DIRECTION ( 'NONE',  ( 0.000000000000000000, 0.000000000000000000, 1.000000000000000000 ) ) ;
#154 = CC_DESIGN_PERSON_AND_ORGANIZATION_ASSIGNMENT ( #11, #52, ( #245 ) ) ;
#155 = CYLINDRICAL_SURFACE ( 'NONE', #184, 10.00000000000000178 ) ;
#156 = DIRECTION ( 'NONE',  ( 0.000000000000000000, 0.000000000000000000, 1.000000000000000000 ) ) ;
#157 = DIRECTION ( 'NONE',  ( 1.000000000000000000, 0.000000000000000000, -0.000000000000000000 ) ) ;
#158 = CARTESIAN_POINT ( 'NONE',  ( 0.000000000000000000, 0.000000000000000000, 315.0000000000000000 ) ) ;
#159 = LINE ( 'NONE', #109, #146 ) ;
#160 = DATE_AND_TIME ( #46, #26 ) ;
#161 = AXIS2_PLACEMENT_3D ( 'NONE', #25, #243, #8 ) ;
#162 = PRODUCT ( '1a4d', '1a4d', '', ( #186 ) ) ;
#163 = PERSON_AND_ORGANIZATION ( #28, #96 ) ;
#164 = CIRCLE ( 'NONE', #56, 10.00000000000000178 ) ;
#165 = ORIENTED_EDGE ( 'NONE', *, *, #128, .T. ) ;
#166 = ORIENTED_EDGE ( 'NONE', *, *, #211, .T. ) ;
#167 = APPROVAL ( #114, 'NEURÈENÝ' ) ;
#168 = PLANE ( 'NONE',  #255 ) ;
#169 = FACE_OUTER_BOUND ( 'NONE', #100, .T. ) ;
#170 = CC_DESIGN_PERSON_AND_ORGANIZATION_ASSIGNMENT ( #197, #9, ( #245 ) ) ;
#171 = DIRECTION ( 'NONE',  ( 0.000000000000000000, 0.000000000000000000, 1.000000000000000000 ) ) ;
#172 = APPLICATION_PROTOCOL_DEFINITION ( 'international standard', 'config_control_design', 1994, #45 ) ;
#173 = APPROVAL_PERSON_ORGANIZATION ( #232, #62, #142 ) ;
#174 = CARTESIAN_POINT ( 'NONE',  ( 13.00000000000000178, 1.592040838891559293E-15, 8.000000000000000000 ) ) ;
#175 = EDGE_CURVE ( 'NONE', #145, #234, #195, .T. ) ;
#176 = FACE_OUTER_BOUND ( 'NONE', #35, .T. ) ;
#177 = DIRECTION ( 'NONE',  ( 0.000000000000000000, 0.000000000000000000, 1.000000000000000000 ) ) ;
#178 = COORDINATED_UNIVERSAL_TIME_OFFSET ( 1, 0, .AHEAD. ) ;
#179 = APPROVAL_PERSON_ORGANIZATION ( #32, #41, #133 ) ;
#180 = ADVANCED_FACE ( 'NONE', ( #210 ), #155, .T. ) ;
#181 = EDGE_LOOP ( 'NONE', ( #10, #165, #53, #75 ) ) ;
#182 = FACE_OUTER_BOUND ( 'NONE', #72, .T. ) ;
#183 = APPROVAL_DATE_TIME ( #199, #167 ) ;
#184 = AXIS2_PLACEMENT_3D ( 'NONE', #158, #106, #64 ) ;
#185 = ORIENTED_EDGE ( 'NONE', *, *, #175, .T. ) ;
#186 = MECHANICAL_CONTEXT ( 'NONE', #45, 'mechanical' ) ;
#187 = DIRECTION ( 'NONE',  ( 0.000000000000000000, 0.000000000000000000, 1.000000000000000000 ) ) ;
#188 = EDGE_CURVE ( 'NONE', #234, #73, #60, .T. ) ;
#189 = DIRECTION ( 'NONE',  ( -1.000000000000000000, 0.000000000000000000, 0.000000000000000000 ) ) ;
#190 = DIRECTION ( 'NONE',  ( 1.000000000000000000, 0.000000000000000000, 0.000000000000000000 ) ) ;
#191 = DIRECTION ( 'NONE',  ( 1.000000000000000000, 0.000000000000000000, 0.000000000000000000 ) ) ;
#192 = AXIS2_PLACEMENT_3D ( 'NONE', #77, #61, #104 ) ;
#193 = CARTESIAN_POINT ( 'NONE',  ( 10.00000000000000178, 1.224646799147353454E-15, 8.000000000000000000 ) ) ;
#194 = DIRECTION ( 'NONE',  ( 0.000000000000000000, 0.000000000000000000, 1.000000000000000000 ) ) ;
#195 = LINE ( 'NONE', #44, #221 ) ;
#196 = DIRECTION ( 'NONE',  ( 1.000000000000000000, 0.000000000000000000, 0.000000000000000000 ) ) ;
#197 = PERSON_AND_ORGANIZATION ( #28, #96 ) ;
#198 = PRODUCT_DEFINITION ( 'NEZNÁMÝ', '', #245, #147 ) ;
#199 = DATE_AND_TIME ( #233, #86 ) ;
#200 = ORIENTED_EDGE ( 'NONE', *, *, #68, .F. ) ;
#201 = MANIFOLD_SOLID_BREP ( 'Pøidat vysunutím3', #7 ) ;
#202 = DATE_AND_TIME ( #113, #85 ) ;
#203 = EDGE_LOOP ( 'NONE', ( #98, #95 ) ) ;
#204 = PERSON_AND_ORGANIZATION ( #28, #96 ) ;
#205 = CARTESIAN_POINT ( 'NONE',  ( 0.000000000000000000, 0.000000000000000000, 8.000000000000000000 ) ) ;
#206 = EDGE_CURVE ( 'NONE', #253, #143, #254, .T. ) ;
#207 = FACE_OUTER_BOUND ( 'NONE', #220, .T. ) ;
#208 = EDGE_CURVE ( 'NONE', #249, #73, #130, .T. ) ;
#209 = LOCAL_TIME ( 11, 35, 47.00000000000000000, #50 ) ;
#210 = FACE_OUTER_BOUND ( 'NONE', #116, .T. ) ;
#211 = EDGE_CURVE ( 'NONE', #51, #253, #159, .T. ) ;
#212 = DIRECTION ( 'NONE',  ( -0.000000000000000000, -0.000000000000000000, -1.000000000000000000 ) ) ;
#213 = CARTESIAN_POINT ( 'NONE',  ( 13.00000000000000178, 1.592040838891559293E-15, 0.000000000000000000 ) ) ;
#214 = AXIS2_PLACEMENT_3D ( 'NONE', #18, #187, #251 ) ;
#215 = ORIENTED_EDGE ( 'NONE', *, *, #128, .F. ) ;
#216 = APPLICATION_PROTOCOL_DEFINITION ( 'international standard', 'config_control_design', 1994, #19 ) ;
#217 = ORIENTED_EDGE ( 'NONE', *, *, #208, .T. ) ;
#218 = DATE_AND_TIME ( #92, #23 ) ;
#219 = AXIS2_PLACEMENT_3D ( 'NONE', #223, #36, #58 ) ;
#220 = EDGE_LOOP ( 'NONE', ( #49, #237, #217, #136 ) ) ;
#221 = VECTOR ( 'NONE', #69, 1000.000000000000000 ) ;
#222 = VECTOR ( 'NONE', #65, 1000.000000000000000 ) ;
#223 = CARTESIAN_POINT ( 'NONE',  ( 0.000000000000000000, 0.000000000000000000, 8.000000000000000000 ) ) ;
#224 = APPROVAL_PERSON_ORGANIZATION ( #94, #167, #29 ) ;
#225 = DIRECTION ( 'NONE',  ( 0.000000000000000000, 0.000000000000000000, 1.000000000000000000 ) ) ;
#226 = FACE_OUTER_BOUND ( 'NONE', #30, .T. ) ;
#227 = CIRCLE ( 'NONE', #214, 13.00000000000000178 ) ;
#228 = LINE ( 'NONE', #174, #222 ) ;
#229 = CARTESIAN_POINT ( 'NONE',  ( -10.00000000000000178, 0.000000000000000000, 315.0000000000000000 ) ) ;
#230 = DIRECTION ( 'NONE',  ( -0.000000000000000000, -0.000000000000000000, -1.000000000000000000 ) ) ;
#231 = PERSON_AND_ORGANIZATION_ROLE ( 'creator' ) ;
#232 = PERSON_AND_ORGANIZATION ( #28, #96 ) ;
#233 = CALENDAR_DATE ( 2023, 12, 2 ) ;
#234 = VERTEX_POINT ( 'NONE', #193 ) ;
#235 = COORDINATED_UNIVERSAL_TIME_OFFSET ( 1, 0, .AHEAD. ) ;
#236 = ORIENTED_EDGE ( 'NONE', *, *, #84, .F. ) ;
#237 = ORIENTED_EDGE ( 'NONE', *, *, #252, .F. ) ;
#238 = VECTOR ( 'NONE', #212, 1000.000000000000000 ) ;
#239 = FACE_OUTER_BOUND ( 'NONE', #181, .T. ) ;
#240 = CC_DESIGN_APPROVAL ( #41, ( #15 ) ) ;
#241 = CIRCLE ( 'NONE', #134, 10.00000000000000178 ) ;
#242 =( GEOMETRIC_REPRESENTATION_CONTEXT ( 3 ) GLOBAL_UNCERTAINTY_ASSIGNED_CONTEXT ( ( #66 ) ) GLOBAL_UNIT_ASSIGNED_CONTEXT ( ( #83, #125, #22 ) ) REPRESENTATION_CONTEXT ( 'NONE', 'WORKASPACE' ) );
#243 = DIRECTION ( 'NONE',  ( 0.000000000000000000, 0.000000000000000000, 1.000000000000000000 ) ) ;
#244 = DIRECTION ( 'NONE',  ( 1.000000000000000000, 0.000000000000000000, 0.000000000000000000 ) ) ;
#245 = PRODUCT_DEFINITION_FORMATION_WITH_SPECIFIED_SOURCE ( 'LIBOVOLNÝ', '', #162, .NOT_KNOWN. ) ;
#246 = DATE_AND_TIME ( #74, #209 ) ;
#247 = VERTEX_POINT ( 'NONE', #127 ) ;
#248 = SECURITY_CLASSIFICATION_LEVEL ( 'unclassified' ) ;
#249 = VERTEX_POINT ( 'NONE', #131 ) ;
#250 = PERSON_AND_ORGANIZATION_ROLE ( 'design_owner' ) ;
#251 = DIRECTION ( 'NONE',  ( 1.000000000000000000, 0.000000000000000000, 0.000000000000000000 ) ) ;
#252 = EDGE_CURVE ( 'NONE', #249, #145, #164, .T. ) ;
#253 = VERTEX_POINT ( 'NONE', #24 ) ;
#254 = CIRCLE ( 'NONE', #124, 13.00000000000000178 ) ;
#255 = AXIS2_PLACEMENT_3D ( 'NONE', #57, #225, #149 ) ;
ENDSEC;
END-ISO-10303-21;
