ISO-10303-21;
HEADER;
FILE_DESCRIPTION (( 'STEP AP203' ),
    '1' );
FILE_NAME ('ce7f.STEP',
    '2022-07-07T12:26:04',
    ( '' ),
    ( '' ),
    'SwSTEP 2.0',
    'SolidWorks 2019',
    '' );
FILE_SCHEMA (( 'CONFIG_CONTROL_DESIGN' ));
ENDSEC;

DATA;
#1 = ORIENTED_EDGE ( 'NONE', *, *, #20, .F. ) ;
#2 = AXIS2_PLACEMENT_3D ( 'NONE', #186, #283, #95 ) ;
#3 = CC_DESIGN_DATE_AND_TIME_ASSIGNMENT ( #30, #221, ( #280 ) ) ;
#4 = DIRECTION ( 'NONE',  ( 0.000000000000000000, -1.000000000000000000, 0.000000000000000000 ) ) ;
#5 = CARTESIAN_POINT ( 'NONE',  ( -5.299999999999998934, 6.490628035480970938E-16, 4.999999999999991118 ) ) ;
#6 =( GEOMETRIC_REPRESENTATION_CONTEXT ( 3 ) GLOBAL_UNCERTAINTY_ASSIGNED_CONTEXT ( ( #219 ) ) GLOBAL_UNIT_ASSIGNED_CONTEXT ( ( #36, #84, #120 ) ) REPRESENTATION_CONTEXT ( 'NONE', 'WORKASPACE' ) );
#7 = DIRECTION ( 'NONE',  ( 0.000000000000000000, 0.000000000000000000, 1.000000000000000000 ) ) ;
#8 = AXIS2_PLACEMENT_3D ( 'NONE', #91, #4, #211 ) ;
#9 = CARTESIAN_POINT ( 'NONE',  ( 0.000000000000000000, 0.000000000000000000, 5.199999999999982414 ) ) ;
#10 = APPROVAL_ROLE ( '' ) ;
#11 = CARTESIAN_POINT ( 'NONE',  ( 0.000000000000000000, 0.000000000000000000, 5.000000000000000000 ) ) ;
#12 = APPROVAL_DATE_TIME ( #55, #15 ) ;
#13 = FACE_OUTER_BOUND ( 'NONE', #88, .T. ) ;
#14 = APPROVAL_ROLE ( '' ) ;
#15 = APPROVAL ( #125, 'NEURÈENÝ' ) ;
#16 = DIRECTION ( 'NONE',  ( 1.000000000000000000, 0.000000000000000000, 0.000000000000000000 ) ) ;
#17 = APPROVAL_DATE_TIME ( #294, #217 ) ;
#18 = PRODUCT_DEFINITION_FORMATION_WITH_SPECIFIED_SOURCE ( 'LIBOVOLNÝ', '', #149, .NOT_KNOWN. ) ;
#19 = PERSON_AND_ORGANIZATION ( #70, #117 ) ;
#20 = EDGE_CURVE ( 'NONE', #229, #46, #42, .T. ) ;
#21 = EDGE_CURVE ( 'NONE', #115, #305, #151, .T. ) ;
#22 = ORIENTED_EDGE ( 'NONE', *, *, #237, .F. ) ;
#23 = CARTESIAN_POINT ( 'NONE',  ( 0.000000000000000000, 0.000000000000000000, 505.0000000000000000 ) ) ;
#24 = ORIENTED_EDGE ( 'NONE', *, *, #285, .T. ) ;
#25 = DIRECTION ( 'NONE',  ( 0.000000000000000000, 0.000000000000000000, 1.000000000000000000 ) ) ;
#26 = CARTESIAN_POINT ( 'NONE',  ( -8.000000000000000000, 0.000000000000000000, 5.000000000000000000 ) ) ;
#27 = DIRECTION ( 'NONE',  ( 0.000000000000000000, 0.000000000000000000, 1.000000000000000000 ) ) ;
#28 = DIRECTION ( 'NONE',  ( 1.000000000000000000, 0.000000000000000000, 0.000000000000000000 ) ) ;
#29 = AXIS2_PLACEMENT_3D ( 'NONE', #44, #163, #238 ) ;
#30 = DATE_AND_TIME ( #77, #232 ) ;
#31 = CARTESIAN_POINT ( 'NONE',  ( 5.099999999999999645, 6.245698675651500839E-16, 505.0000000000000000 ) ) ;
#32 = FACE_OUTER_BOUND ( 'NONE', #68, .T. ) ;
#33 = DIRECTION ( 'NONE',  ( 0.000000000000000000, 0.000000000000000000, 1.000000000000000000 ) ) ;
#34 = PERSON_AND_ORGANIZATION_ROLE ( 'design_supplier' ) ;
#35 = AXIS2_PLACEMENT_3D ( 'NONE', #11, #101, #16 ) ;
#36 =( LENGTH_UNIT ( ) NAMED_UNIT ( * ) SI_UNIT ( .MILLI., .METRE. ) );
#37 = APPLICATION_PROTOCOL_DEFINITION ( 'international standard', 'config_control_design', 1994, #187 ) ;
#38 = TOROIDAL_SURFACE ( 'NONE', #246, 5.299999999999998934, 0.2000000000000000111 ) ;
#39 = ORIENTED_EDGE ( 'NONE', *, *, #80, .F. ) ;
#40 = CC_DESIGN_APPROVAL ( #217, ( #18 ) ) ;
#41 = ORIENTED_EDGE ( 'NONE', *, *, #271, .T. ) ;
#42 = CIRCLE ( 'NONE', #176, 5.299999999999998934 ) ;
#43 = CARTESIAN_POINT ( 'NONE',  ( 0.000000000000000000, 0.000000000000000000, 5.000000000000000000 ) ) ;
#44 = CARTESIAN_POINT ( 'NONE',  ( 0.000000000000000000, 0.000000000000000000, 5.000000000000000000 ) ) ;
#45 = ADVANCED_FACE ( 'NONE', ( #212, #278 ), #92, .T. ) ;
#46 = VERTEX_POINT ( 'NONE', #5 ) ;
#47 = ORIENTED_EDGE ( 'NONE', *, *, #145, .T. ) ;
#48 = EDGE_LOOP ( 'NONE', ( #304, #66 ) ) ;
#49 = DIRECTION ( 'NONE',  ( 0.000000000000000000, 0.000000000000000000, 1.000000000000000000 ) ) ;
#50 = DIRECTION ( 'NONE',  ( 0.000000000000000000, 0.000000000000000000, 1.000000000000000000 ) ) ;
#51 = COORDINATED_UNIVERSAL_TIME_OFFSET ( 1, 0, .AHEAD. ) ;
#52 = CARTESIAN_POINT ( 'NONE',  ( 0.000000000000000000, 0.000000000000000000, 5.000000000000000000 ) ) ;
#53 = PRODUCT_RELATED_PRODUCT_CATEGORY ( 'detail', '', ( #149 ) ) ;
#54 = DIRECTION ( 'NONE',  ( -0.000000000000000000, -0.000000000000000000, -1.000000000000000000 ) ) ;
#55 = DATE_AND_TIME ( #223, #306 ) ;
#56 = CIRCLE ( 'NONE', #303, 5.099999999999999645 ) ;
#57 = CARTESIAN_POINT ( 'NONE',  ( 8.000000000000000000, 9.797174393178825657E-16, 5.000000000000000000 ) ) ;
#58 = CALENDAR_DATE ( 2022, 7, 7 ) ;
#59 = ORIENTED_EDGE ( 'NONE', *, *, #276, .F. ) ;
#60 = AXIS2_PLACEMENT_3D ( 'NONE', #247, #33, #272 ) ;
#61 = APPLICATION_CONTEXT ( 'configuration controlled 3d designs of mechanical parts and assemblies' ) ;
#62 = ORIENTED_EDGE ( 'NONE', *, *, #268, .F. ) ;
#63 = EDGE_CURVE ( 'NONE', #136, #184, #139, .T. ) ;
#64 = CC_DESIGN_PERSON_AND_ORGANIZATION_ASSIGNMENT ( #248, #34, ( #18 ) ) ;
#65 = APPROVAL ( #273, 'NEURÈENÝ' ) ;
#66 = ORIENTED_EDGE ( 'NONE', *, *, #126, .T. ) ;
#67 = AXIS2_PLACEMENT_3D ( 'NONE', #137, #144, #138 ) ;
#68 = EDGE_LOOP ( 'NONE', ( #301, #127, #233, #109 ) ) ;
#69 = FACE_OUTER_BOUND ( 'NONE', #182, .T. ) ;
#70 = PERSON ( 'NEURÈENÝ', 'NEURÈENÝ', 'NEURÈENÝ', ('NEURÈENÝ'), ('NEURÈENÝ'), ('NEURÈENÝ') ) ;
#71 = ORIENTED_EDGE ( 'NONE', *, *, #145, .F. ) ;
#72 = DIRECTION ( 'NONE',  ( -0.000000000000000000, -0.000000000000000000, -1.000000000000000000 ) ) ;
#73 = FACE_OUTER_BOUND ( 'NONE', #189, .T. ) ;
#74 = DIRECTION ( 'NONE',  ( 1.000000000000000000, 0.000000000000000000, 0.000000000000000000 ) ) ;
#75 = DIRECTION ( 'NONE',  ( 0.000000000000000000, 0.000000000000000000, 1.000000000000000000 ) ) ;
#76 = CARTESIAN_POINT ( 'NONE',  ( 0.000000000000000000, 0.000000000000000000, 0.000000000000000000 ) ) ;
#77 = CALENDAR_DATE ( 2022, 7, 7 ) ;
#78 = DIRECTION ( 'NONE',  ( 1.000000000000000000, 0.000000000000000000, 0.000000000000000000 ) ) ;
#79 = PERSON_AND_ORGANIZATION ( #70, #117 ) ;
#80 = EDGE_CURVE ( 'NONE', #115, #229, #161, .T. ) ;
#81 = LINE ( 'NONE', #57, #207 ) ;
#82 = AXIS2_PLACEMENT_3D ( 'NONE', #173, #243, #197 ) ;
#83 = PERSON_AND_ORGANIZATION ( #70, #117 ) ;
#84 =( NAMED_UNIT ( * ) PLANE_ANGLE_UNIT ( ) SI_UNIT ( $, .RADIAN. ) );
#85 = CIRCLE ( 'NONE', #2, 0.1999999999999996503 ) ;
#86 = EDGE_CURVE ( 'NONE', #305, #46, #85, .T. ) ;
#87 = ADVANCED_FACE ( 'NONE', ( #94 ), #231, .T. ) ;
#88 = EDGE_LOOP ( 'NONE', ( #108, #134 ) ) ;
#89 = ADVANCED_FACE ( 'NONE', ( #69 ), #160, .T. ) ;
#90 = ORIENTED_EDGE ( 'NONE', *, *, #172, .F. ) ;
#91 = CARTESIAN_POINT ( 'NONE',  ( 5.299999999999998934, 0.000000000000000000, 5.199999999999982414 ) ) ;
#92 = PLANE ( 'NONE',  #292 ) ;
#93 = EDGE_CURVE ( 'NONE', #184, #300, #282, .T. ) ;
#94 = FACE_OUTER_BOUND ( 'NONE', #277, .T. ) ;
#95 = DIRECTION ( 'NONE',  ( -1.000000000000000000, 1.224646799147353454E-16, 0.000000000000000000 ) ) ;
#96 = DIRECTION ( 'NONE',  ( 1.000000000000000000, 0.000000000000000000, -0.000000000000000000 ) ) ;
#97 = DESIGN_CONTEXT ( 'detailed design', #187, 'design' ) ;
#98 = CARTESIAN_POINT ( 'NONE',  ( -5.099999999999999645, 0.000000000000000000, 505.0000000000000000 ) ) ;
#99 = AXIS2_PLACEMENT_3D ( 'NONE', #76, #50, #74 ) ;
#100 = DIRECTION ( 'NONE',  ( 0.000000000000000000, 0.000000000000000000, 1.000000000000000000 ) ) ;
#101 = DIRECTION ( 'NONE',  ( -0.000000000000000000, -0.000000000000000000, -1.000000000000000000 ) ) ;
#102 = COORDINATED_UNIVERSAL_TIME_OFFSET ( 1, 0, .AHEAD. ) ;
#103 = CARTESIAN_POINT ( 'NONE',  ( 0.000000000000000000, 0.000000000000000000, 0.000000000000000000 ) ) ;
#104 = ADVANCED_FACE ( 'NONE', ( #73 ), #258, .T. ) ;
#105 = PERSON_AND_ORGANIZATION_ROLE ( 'classification_officer' ) ;
#106 = CC_DESIGN_PERSON_AND_ORGANIZATION_ASSIGNMENT ( #107, #105, ( #116 ) ) ;
#107 = PERSON_AND_ORGANIZATION ( #70, #117 ) ;
#108 = ORIENTED_EDGE ( 'NONE', *, *, #191, .T. ) ;
#109 = ORIENTED_EDGE ( 'NONE', *, *, #126, .F. ) ;
#110 = ORIENTED_EDGE ( 'NONE', *, *, #271, .F. ) ;
#111 = ORIENTED_EDGE ( 'NONE', *, *, #191, .F. ) ;
#112 = DIRECTION ( 'NONE',  ( -0.000000000000000000, -0.000000000000000000, -1.000000000000000000 ) ) ;
#113 = ORIENTED_EDGE ( 'NONE', *, *, #285, .F. ) ;
#114 = DIRECTION ( 'NONE',  ( 1.000000000000000000, 0.000000000000000000, 0.000000000000000000 ) ) ;
#115 = VERTEX_POINT ( 'NONE', #224 ) ;
#116 = SECURITY_CLASSIFICATION ( '', '', #228 ) ;
#117 = ORGANIZATION ( 'NEURÈENÝ', 'NEURÈENÝ', '' ) ;
#118 = FACE_OUTER_BOUND ( 'NONE', #259, .T. ) ;
#119 = FACE_OUTER_BOUND ( 'NONE', #153, .T. ) ;
#120 =( NAMED_UNIT ( * ) SI_UNIT ( $, .STERADIAN. ) SOLID_ANGLE_UNIT ( ) );
#121 = LINE ( 'NONE', #225, #158 ) ;
#122 = CARTESIAN_POINT ( 'NONE',  ( -8.000000000000000000, 0.000000000000000000, 0.000000000000000000 ) ) ;
#123 = CARTESIAN_POINT ( 'NONE',  ( 0.000000000000000000, 0.000000000000000000, 5.000000000000000000 ) ) ;
#124 = COORDINATED_UNIVERSAL_TIME_OFFSET ( 1, 0, .AHEAD. ) ;
#125 = APPROVAL_STATUS ( 'not_yet_approved' ) ;
#126 = EDGE_CURVE ( 'NONE', #46, #229, #170, .T. ) ;
#127 = ORIENTED_EDGE ( 'NONE', *, *, #21, .F. ) ;
#128 = ORIENTED_EDGE ( 'NONE', *, *, #172, .T. ) ;
#129 = CC_DESIGN_SECURITY_CLASSIFICATION ( #116, ( #18 ) ) ;
#130 = PRODUCT_DEFINITION_SHAPE ( 'NONE', 'NONE',  #280 ) ;
#131 = AXIS2_PLACEMENT_3D ( 'NONE', #214, #135, #114 ) ;
#132 = ORIENTED_EDGE ( 'NONE', *, *, #237, .T. ) ;
#133 = ORIENTED_EDGE ( 'NONE', *, *, #63, .F. ) ;
#134 = ORIENTED_EDGE ( 'NONE', *, *, #268, .T. ) ;
#135 = DIRECTION ( 'NONE',  ( 0.000000000000000000, 0.000000000000000000, 1.000000000000000000 ) ) ;
#136 = VERTEX_POINT ( 'NONE', #171 ) ;
#137 = CARTESIAN_POINT ( 'NONE',  ( 0.000000000000000000, 0.000000000000000000, 5.199999999999982414 ) ) ;
#138 = DIRECTION ( 'NONE',  ( 1.000000000000000000, 0.000000000000000000, 0.000000000000000000 ) ) ;
#139 = CIRCLE ( 'NONE', #131, 8.000000000000000000 ) ;
#140 = COORDINATED_UNIVERSAL_TIME_OFFSET ( 1, 0, .AHEAD. ) ;
#141 = DIRECTION ( 'NONE',  ( 1.000000000000000000, 0.000000000000000000, 0.000000000000000000 ) ) ;
#142 = COORDINATED_UNIVERSAL_TIME_OFFSET ( 1, 0, .AHEAD. ) ;
#143 = CIRCLE ( 'NONE', #302, 8.000000000000000000 ) ;
#144 = DIRECTION ( 'NONE',  ( 0.000000000000000000, 0.000000000000000000, 1.000000000000000000 ) ) ;
#145 = EDGE_CURVE ( 'NONE', #305, #115, #289, .T. ) ;
#146 = PERSON_AND_ORGANIZATION ( #70, #117 ) ;
#147 = DATE_AND_TIME ( #58, #201 ) ;
#148 = ORIENTED_EDGE ( 'NONE', *, *, #21, .T. ) ;
#149 = PRODUCT ( 'ce7f', 'ce7f', '', ( #288 ) ) ;
#150 = ORIENTED_EDGE ( 'NONE', *, *, #93, .F. ) ;
#151 = CIRCLE ( 'NONE', #218, 5.099999999999999645 ) ;
#152 = ADVANCED_FACE ( 'NONE', ( #198 ), #196, .F. ) ;
#153 = EDGE_LOOP ( 'NONE', ( #215, #59, #230, #132 ) ) ;
#154 = CC_DESIGN_PERSON_AND_ORGANIZATION_ASSIGNMENT ( #79, #195, ( #18 ) ) ;
#155 = EDGE_LOOP ( 'NONE', ( #205, #178 ) ) ;
#156 = CARTESIAN_POINT ( 'NONE',  ( 0.000000000000000000, 0.000000000000000000, 505.0000000000000000 ) ) ;
#157 = DIRECTION ( 'NONE',  ( 1.000000000000000000, 0.000000000000000000, -0.000000000000000000 ) ) ;
#158 = VECTOR ( 'NONE', #295, 1000.000000000000000 ) ;
#159 = ADVANCED_BREP_SHAPE_REPRESENTATION ( 'ce7f', ( #235, #82 ), #6 ) ;
#160 = CYLINDRICAL_SURFACE ( 'NONE', #257, 5.099999999999999645 ) ;
#161 = CIRCLE ( 'NONE', #8, 0.1999999999999996503 ) ;
#162 = AXIS2_PLACEMENT_3D ( 'NONE', #23, #72, #190 ) ;
#163 = DIRECTION ( 'NONE',  ( -0.000000000000000000, -0.000000000000000000, -1.000000000000000000 ) ) ;
#164 = LOCAL_TIME ( 14, 26, 4.000000000000000000, #142 ) ;
#165 = CARTESIAN_POINT ( 'NONE',  ( 0.000000000000000000, 0.000000000000000000, 5.199999999999982414 ) ) ;
#166 = AXIS2_PLACEMENT_3D ( 'NONE', #165, #7, #293 ) ;
#167 = DIRECTION ( 'NONE',  ( 1.000000000000000000, 0.000000000000000000, 0.000000000000000000 ) ) ;
#168 = APPROVAL_ROLE ( '' ) ;
#169 = PLANE ( 'NONE',  #279 ) ;
#170 = CIRCLE ( 'NONE', #35, 5.299999999999998934 ) ;
#171 = CARTESIAN_POINT ( 'NONE',  ( 8.000000000000000000, 9.797174393178825657E-16, 5.000000000000000000 ) ) ;
#172 = EDGE_CURVE ( 'NONE', #275, #115, #240, .T. ) ;
#173 = CARTESIAN_POINT ( 'NONE',  ( 0.000000000000000000, 0.000000000000000000, 0.000000000000000000 ) ) ;
#174 = CIRCLE ( 'NONE', #99, 8.000000000000000000 ) ;
#175 = PERSON_AND_ORGANIZATION_ROLE ( 'design_owner' ) ;
#176 = AXIS2_PLACEMENT_3D ( 'NONE', #234, #112, #281 ) ;
#177 = PERSON_AND_ORGANIZATION ( #70, #117 ) ;
#178 = ORIENTED_EDGE ( 'NONE', *, *, #63, .T. ) ;
#179 = APPROVAL_PERSON_ORGANIZATION ( #146, #217, #10 ) ;
#180 = CLOSED_SHELL ( 'NONE', ( #209, #89, #104, #274, #45, #152, #87, #185, #260 ) ) ;
#181 = CC_DESIGN_PERSON_AND_ORGANIZATION_ASSIGNMENT ( #177, #291, ( #280 ) ) ;
#182 = EDGE_LOOP ( 'NONE', ( #62, #128, #148, #113 ) ) ;
#183 = AXIS2_PLACEMENT_3D ( 'NONE', #269, #27, #96 ) ;
#184 = VERTEX_POINT ( 'NONE', #192 ) ;
#185 = ADVANCED_FACE ( 'NONE', ( #13 ), #169, .T. ) ;
#186 = CARTESIAN_POINT ( 'NONE',  ( -5.299999999999998934, 6.490628035480970938E-16, 5.199999999999982414 ) ) ;
#187 = APPLICATION_CONTEXT ( 'configuration controlled 3d designs of mechanical parts and assemblies' ) ;
#188 = CC_DESIGN_APPROVAL ( #65, ( #116 ) ) ;
#189 = EDGE_LOOP ( 'NONE', ( #133, #254, #41, #150 ) ) ;
#190 = DIRECTION ( 'NONE',  ( -1.000000000000000000, 0.000000000000000000, 0.000000000000000000 ) ) ;
#191 = EDGE_CURVE ( 'NONE', #252, #275, #56, .T. ) ;
#192 = CARTESIAN_POINT ( 'NONE',  ( -8.000000000000000000, 0.000000000000000000, 5.000000000000000000 ) ) ;
#193 = APPROVAL_PERSON_ORGANIZATION ( #19, #65, #168 ) ;
#194 = CYLINDRICAL_SURFACE ( 'NONE', #245, 8.000000000000000000 ) ;
#195 = PERSON_AND_ORGANIZATION_ROLE ( 'creator' ) ;
#196 = PLANE ( 'NONE',  #183 ) ;
#197 = DIRECTION ( 'NONE',  ( 1.000000000000000000, 0.000000000000000000, 0.000000000000000000 ) ) ;
#198 = FACE_OUTER_BOUND ( 'NONE', #208, .T. ) ;
#199 = APPROVAL_STATUS ( 'not_yet_approved' ) ;
#200 = DIRECTION ( 'NONE',  ( 0.000000000000000000, 0.000000000000000000, 1.000000000000000000 ) ) ;
#201 = LOCAL_TIME ( 14, 26, 4.000000000000000000, #51 ) ;
#202 = TOROIDAL_SURFACE ( 'NONE', #67, 5.299999999999998934, 0.2000000000000000111 ) ;
#203 = DATE_AND_TIME ( #226, #206 ) ;
#204 = CALENDAR_DATE ( 2022, 7, 7 ) ;
#205 = ORIENTED_EDGE ( 'NONE', *, *, #276, .T. ) ;
#206 = LOCAL_TIME ( 14, 26, 4.000000000000000000, #124 ) ;
#207 = VECTOR ( 'NONE', #244, 1000.000000000000000 ) ;
#208 = EDGE_LOOP ( 'NONE', ( #22, #110 ) ) ;
#209 = ADVANCED_FACE ( 'NONE', ( #118 ), #38, .F. ) ;
#210 = CARTESIAN_POINT ( 'NONE',  ( 0.000000000000000000, 0.000000000000000000, 5.199999999999982414 ) ) ;
#211 = DIRECTION ( 'NONE',  ( 0.000000000000000000, 0.000000000000000000, -1.000000000000000000 ) ) ;
#212 = FACE_BOUND ( 'NONE', #48, .T. ) ;
#213 = CIRCLE ( 'NONE', #270, 8.000000000000000000 ) ;
#214 = CARTESIAN_POINT ( 'NONE',  ( 0.000000000000000000, 0.000000000000000000, 5.000000000000000000 ) ) ;
#215 = ORIENTED_EDGE ( 'NONE', *, *, #286, .F. ) ;
#216 = DIRECTION ( 'NONE',  ( 1.000000000000000000, 0.000000000000000000, -0.000000000000000000 ) ) ;
#217 = APPROVAL ( #199, 'NEURÈENÝ' ) ;
#218 = AXIS2_PLACEMENT_3D ( 'NONE', #210, #307, #256 ) ;
#219 = UNCERTAINTY_MEASURE_WITH_UNIT (LENGTH_MEASURE( 1.000000000000000082E-05 ), #36, 'distance_accuracy_value', 'NONE');
#220 = DIRECTION ( 'NONE',  ( -0.000000000000000000, -0.000000000000000000, -1.000000000000000000 ) ) ;
#221 = DATE_TIME_ROLE ( 'creation_date' ) ;
#222 = CARTESIAN_POINT ( 'NONE',  ( 0.000000000000000000, 0.000000000000000000, 505.0000000000000000 ) ) ;
#223 = CALENDAR_DATE ( 2022, 7, 7 ) ;
#224 = CARTESIAN_POINT ( 'NONE',  ( 5.099999999999999645, 6.245698675651500839E-16, 5.199999999999982414 ) ) ;
#225 = CARTESIAN_POINT ( 'NONE',  ( -5.099999999999999645, 0.000000000000000000, 505.0000000000000000 ) ) ;
#226 = CALENDAR_DATE ( 2022, 7, 7 ) ;
#227 = CARTESIAN_POINT ( 'NONE',  ( -5.099999999999999645, 0.000000000000000000, 5.199999999999982414 ) ) ;
#228 = SECURITY_CLASSIFICATION_LEVEL ( 'unclassified' ) ;
#229 = VERTEX_POINT ( 'NONE', #264 ) ;
#230 = ORIENTED_EDGE ( 'NONE', *, *, #93, .T. ) ;
#231 = CYLINDRICAL_SURFACE ( 'NONE', #162, 5.099999999999999645 ) ;
#232 = LOCAL_TIME ( 14, 26, 4.000000000000000000, #102 ) ;
#233 = ORIENTED_EDGE ( 'NONE', *, *, #80, .T. ) ;
#234 = CARTESIAN_POINT ( 'NONE',  ( 0.000000000000000000, 0.000000000000000000, 5.000000000000000000 ) ) ;
#235 = MANIFOLD_SOLID_BREP ( 'Zaoblit1', #180 ) ;
#236 = DIRECTION ( 'NONE',  ( -1.000000000000000000, 0.000000000000000000, 0.000000000000000000 ) ) ;
#237 = EDGE_CURVE ( 'NONE', #300, #251, #213, .T. ) ;
#238 = DIRECTION ( 'NONE',  ( -1.000000000000000000, 0.000000000000000000, 0.000000000000000000 ) ) ;
#239 = CIRCLE ( 'NONE', #60, 5.099999999999999645 ) ;
#240 = LINE ( 'NONE', #242, #255 ) ;
#241 = PERSON_AND_ORGANIZATION ( #70, #117 ) ;
#242 = CARTESIAN_POINT ( 'NONE',  ( 5.099999999999999645, 6.245698675651500839E-16, 505.0000000000000000 ) ) ;
#243 = DIRECTION ( 'NONE',  ( 0.000000000000000000, 0.000000000000000000, 1.000000000000000000 ) ) ;
#244 = DIRECTION ( 'NONE',  ( -0.000000000000000000, -0.000000000000000000, -1.000000000000000000 ) ) ;
#245 = AXIS2_PLACEMENT_3D ( 'NONE', #52, #220, #287 ) ;
#246 = AXIS2_PLACEMENT_3D ( 'NONE', #9, #265, #28 ) ;
#247 = CARTESIAN_POINT ( 'NONE',  ( 0.000000000000000000, 0.000000000000000000, 505.0000000000000000 ) ) ;
#248 = PERSON_AND_ORGANIZATION ( #70, #117 ) ;
#249 = APPROVAL_DATE_TIME ( #147, #65 ) ;
#250 = CC_DESIGN_DATE_AND_TIME_ASSIGNMENT ( #203, #296, ( #116 ) ) ;
#251 = VERTEX_POINT ( 'NONE', #263 ) ;
#252 = VERTEX_POINT ( 'NONE', #98 ) ;
#253 = CC_DESIGN_PERSON_AND_ORGANIZATION_ASSIGNMENT ( #83, #175, ( #149 ) ) ;
#254 = ORIENTED_EDGE ( 'NONE', *, *, #286, .T. ) ;
#255 = VECTOR ( 'NONE', #54, 1000.000000000000000 ) ;
#256 = DIRECTION ( 'NONE',  ( 1.000000000000000000, 0.000000000000000000, 0.000000000000000000 ) ) ;
#257 = AXIS2_PLACEMENT_3D ( 'NONE', #156, #261, #236 ) ;
#258 = CYLINDRICAL_SURFACE ( 'NONE', #29, 8.000000000000000000 ) ;
#259 = EDGE_LOOP ( 'NONE', ( #71, #262, #1, #39 ) ) ;
#260 = ADVANCED_FACE ( 'NONE', ( #32 ), #202, .F. ) ;
#261 = DIRECTION ( 'NONE',  ( -0.000000000000000000, -0.000000000000000000, -1.000000000000000000 ) ) ;
#262 = ORIENTED_EDGE ( 'NONE', *, *, #86, .T. ) ;
#263 = CARTESIAN_POINT ( 'NONE',  ( 8.000000000000000000, 9.797174393178825657E-16, 0.000000000000000000 ) ) ;
#264 = CARTESIAN_POINT ( 'NONE',  ( 5.299999999999998934, 0.000000000000000000, 4.999999999999991118 ) ) ;
#265 = DIRECTION ( 'NONE',  ( 0.000000000000000000, 0.000000000000000000, 1.000000000000000000 ) ) ;
#266 = APPLICATION_PROTOCOL_DEFINITION ( 'international standard', 'config_control_design', 1994, #61 ) ;
#267 = CC_DESIGN_APPROVAL ( #15, ( #280 ) ) ;
#268 = EDGE_CURVE ( 'NONE', #275, #252, #239, .T. ) ;
#269 = CARTESIAN_POINT ( 'NONE',  ( 0.000000000000000000, 0.000000000000000000, 0.000000000000000000 ) ) ;
#270 = AXIS2_PLACEMENT_3D ( 'NONE', #103, #200, #78 ) ;
#271 = EDGE_CURVE ( 'NONE', #251, #300, #174, .T. ) ;
#272 = DIRECTION ( 'NONE',  ( 1.000000000000000000, 0.000000000000000000, 0.000000000000000000 ) ) ;
#273 = APPROVAL_STATUS ( 'not_yet_approved' ) ;
#274 = ADVANCED_FACE ( 'NONE', ( #119 ), #194, .T. ) ;
#275 = VERTEX_POINT ( 'NONE', #31 ) ;
#276 = EDGE_CURVE ( 'NONE', #184, #136, #143, .T. ) ;
#277 = EDGE_LOOP ( 'NONE', ( #90, #111, #24, #47 ) ) ;
#278 = FACE_OUTER_BOUND ( 'NONE', #155, .T. ) ;
#279 = AXIS2_PLACEMENT_3D ( 'NONE', #290, #49, #216 ) ;
#280 = PRODUCT_DEFINITION ( 'NEZNÁMÝ', '', #18, #97 ) ;
#281 = DIRECTION ( 'NONE',  ( 1.000000000000000000, 0.000000000000000000, 0.000000000000000000 ) ) ;
#282 = LINE ( 'NONE', #26, #299 ) ;
#283 = DIRECTION ( 'NONE',  ( 1.224646799147353207E-16, 1.000000000000000000, -0.000000000000000000 ) ) ;
#284 = DIRECTION ( 'NONE',  ( -0.000000000000000000, -0.000000000000000000, -1.000000000000000000 ) ) ;
#285 = EDGE_CURVE ( 'NONE', #252, #305, #121, .T. ) ;
#286 = EDGE_CURVE ( 'NONE', #136, #251, #81, .T. ) ;
#287 = DIRECTION ( 'NONE',  ( -1.000000000000000000, 0.000000000000000000, 0.000000000000000000 ) ) ;
#288 = MECHANICAL_CONTEXT ( 'NONE', #61, 'mechanical' ) ;
#289 = CIRCLE ( 'NONE', #166, 5.099999999999999645 ) ;
#290 = CARTESIAN_POINT ( 'NONE',  ( 0.000000000000000000, 0.000000000000000000, 505.0000000000000000 ) ) ;
#291 = PERSON_AND_ORGANIZATION_ROLE ( 'creator' ) ;
#292 = AXIS2_PLACEMENT_3D ( 'NONE', #43, #25, #157 ) ;
#293 = DIRECTION ( 'NONE',  ( 1.000000000000000000, 0.000000000000000000, 0.000000000000000000 ) ) ;
#294 = DATE_AND_TIME ( #204, #164 ) ;
#295 = DIRECTION ( 'NONE',  ( -0.000000000000000000, -0.000000000000000000, -1.000000000000000000 ) ) ;
#296 = DATE_TIME_ROLE ( 'classification_date' ) ;
#297 = APPROVAL_PERSON_ORGANIZATION ( #241, #15, #14 ) ;
#298 = SHAPE_DEFINITION_REPRESENTATION ( #130, #159 ) ;
#299 = VECTOR ( 'NONE', #284, 1000.000000000000000 ) ;
#300 = VERTEX_POINT ( 'NONE', #122 ) ;
#301 = ORIENTED_EDGE ( 'NONE', *, *, #86, .F. ) ;
#302 = AXIS2_PLACEMENT_3D ( 'NONE', #123, #75, #141 ) ;
#303 = AXIS2_PLACEMENT_3D ( 'NONE', #222, #100, #167 ) ;
#304 = ORIENTED_EDGE ( 'NONE', *, *, #20, .T. ) ;
#305 = VERTEX_POINT ( 'NONE', #227 ) ;
#306 = LOCAL_TIME ( 14, 26, 4.000000000000000000, #140 ) ;
#307 = DIRECTION ( 'NONE',  ( 0.000000000000000000, 0.000000000000000000, 1.000000000000000000 ) ) ;
ENDSEC;
END-ISO-10303-21;
