ISO-10303-21;
HEADER;
FILE_DESCRIPTION (( 'STEP AP203' ),
    '1' );
FILE_NAME ('5358.STEP',
    '2022-07-07T12:28:44',
    ( '' ),
    ( '' ),
    'SwSTEP 2.0',
    'SolidWorks 2019',
    '' );
FILE_SCHEMA (( 'CONFIG_CONTROL_DESIGN' ));
ENDSEC;

DATA;
#1 = VERTEX_POINT ( 'NONE', #194 ) ;
#2 = DIRECTION ( 'NONE',  ( 1.000000000000000000, 0.000000000000000000, 0.000000000000000000 ) ) ;
#3 = CARTESIAN_POINT ( 'NONE',  ( 0.000000000000000000, 0.000000000000000000, 0.000000000000000000 ) ) ;
#4 = AXIS2_PLACEMENT_3D ( 'NONE', #30, #143, #5 ) ;
#5 = DIRECTION ( 'NONE',  ( -1.000000000000000000, 1.224646799147353454E-16, 0.000000000000000000 ) ) ;
#6 = PRODUCT_DEFINITION ( 'NEZNÁMÝ', '', #71, #53 ) ;
#7 = ORIENTED_EDGE ( 'NONE', *, *, #68, .T. ) ;
#8 = CC_DESIGN_DATE_AND_TIME_ASSIGNMENT ( #92, #88, ( #6 ) ) ;
#9 = PERSON ( 'NEURÈENÝ', 'NEURÈENÝ', 'NEURÈENÝ', ('NEURÈENÝ'), ('NEURÈENÝ'), ('NEURÈENÝ') ) ;
#10 = DIRECTION ( 'NONE',  ( 0.000000000000000000, 0.000000000000000000, 1.000000000000000000 ) ) ;
#11 = AXIS2_PLACEMENT_3D ( 'NONE', #106, #222, #205 ) ;
#12 = FACE_OUTER_BOUND ( 'NONE', #138, .T. ) ;
#13 = EDGE_CURVE ( 'NONE', #70, #242, #261, .T. ) ;
#14 = DIRECTION ( 'NONE',  ( 0.000000000000000000, 0.000000000000000000, 1.000000000000000000 ) ) ;
#15 = DIRECTION ( 'NONE',  ( -0.000000000000000000, -0.000000000000000000, -1.000000000000000000 ) ) ;
#16 = APPROVAL ( #129, 'NEURÈENÝ' ) ;
#17 = DIRECTION ( 'NONE',  ( 1.000000000000000000, 0.000000000000000000, 0.000000000000000000 ) ) ;
#18 =( GEOMETRIC_REPRESENTATION_CONTEXT ( 3 ) GLOBAL_UNCERTAINTY_ASSIGNED_CONTEXT ( ( #249 ) ) GLOBAL_UNIT_ASSIGNED_CONTEXT ( ( #212, #207, #137 ) ) REPRESENTATION_CONTEXT ( 'NONE', 'WORKASPACE' ) );
#19 = APPROVAL_STATUS ( 'not_yet_approved' ) ;
#20 = PERSON_AND_ORGANIZATION ( #9, #274 ) ;
#21 = ORIENTED_EDGE ( 'NONE', *, *, #130, .F. ) ;
#22 = AXIS2_PLACEMENT_3D ( 'NONE', #227, #147, #17 ) ;
#23 = COORDINATED_UNIVERSAL_TIME_OFFSET ( 1, 0, .AHEAD. ) ;
#24 = COORDINATED_UNIVERSAL_TIME_OFFSET ( 1, 0, .AHEAD. ) ;
#25 = FACE_OUTER_BOUND ( 'NONE', #260, .T. ) ;
#26 = AXIS2_PLACEMENT_3D ( 'NONE', #146, #41, #128 ) ;
#27 = EDGE_CURVE ( 'NONE', #51, #256, #49, .T. ) ;
#28 = CARTESIAN_POINT ( 'NONE',  ( 0.000000000000000000, 0.000000000000000000, 5.199999999999996625 ) ) ;
#29 = VERTEX_POINT ( 'NONE', #219 ) ;
#30 = CARTESIAN_POINT ( 'NONE',  ( -5.200000000000000178, 6.368163355566236381E-16, 5.199999999999996625 ) ) ;
#31 = CIRCLE ( 'NONE', #198, 0.1999999999999996503 ) ;
#32 = CARTESIAN_POINT ( 'NONE',  ( 0.000000000000000000, 0.000000000000000000, 105.0000000000000142 ) ) ;
#33 = CARTESIAN_POINT ( 'NONE',  ( 0.000000000000000000, 0.000000000000000000, 0.000000000000000000 ) ) ;
#34 = ADVANCED_FACE ( 'NONE', ( #73 ), #165, .F. ) ;
#35 = LINE ( 'NONE', #124, #189 ) ;
#36 = TOROIDAL_SURFACE ( 'NONE', #210, 5.200000000000000178, 0.2000000000000000111 ) ;
#37 = AXIS2_PLACEMENT_3D ( 'NONE', #127, #197, #108 ) ;
#38 = DIRECTION ( 'NONE',  ( -0.000000000000000000, -0.000000000000000000, -1.000000000000000000 ) ) ;
#39 = DIRECTION ( 'NONE',  ( 1.000000000000000000, 0.000000000000000000, 0.000000000000000000 ) ) ;
#40 = ADVANCED_FACE ( 'NONE', ( #262 ), #36, .F. ) ;
#41 = DIRECTION ( 'NONE',  ( -0.000000000000000000, -0.000000000000000000, -1.000000000000000000 ) ) ;
#42 = CIRCLE ( 'NONE', #98, 8.000000000000000000 ) ;
#43 = DIRECTION ( 'NONE',  ( 1.000000000000000000, 0.000000000000000000, 0.000000000000000000 ) ) ;
#44 = PERSON_AND_ORGANIZATION ( #9, #274 ) ;
#45 = ORIENTED_EDGE ( 'NONE', *, *, #305, .T. ) ;
#46 = ADVANCED_FACE ( 'NONE', ( #288 ), #102, .T. ) ;
#47 = CARTESIAN_POINT ( 'NONE',  ( 0.000000000000000000, 0.000000000000000000, 0.000000000000000000 ) ) ;
#48 = ORIENTED_EDGE ( 'NONE', *, *, #91, .T. ) ;
#49 = LINE ( 'NONE', #141, #58 ) ;
#50 = DIRECTION ( 'NONE',  ( 0.000000000000000000, 0.000000000000000000, 1.000000000000000000 ) ) ;
#51 = VERTEX_POINT ( 'NONE', #76 ) ;
#52 = EDGE_LOOP ( 'NONE', ( #66, #89, #100, #282 ) ) ;
#53 = DESIGN_CONTEXT ( 'detailed design', #162, 'design' ) ;
#54 = CARTESIAN_POINT ( 'NONE',  ( 0.000000000000000000, 0.000000000000000000, 0.000000000000000000 ) ) ;
#55 = CYLINDRICAL_SURFACE ( 'NONE', #26, 5.000000000000000000 ) ;
#56 = EDGE_CURVE ( 'NONE', #242, #256, #42, .T. ) ;
#57 = FACE_OUTER_BOUND ( 'NONE', #52, .T. ) ;
#58 = VECTOR ( 'NONE', #218, 1000.000000000000000 ) ;
#59 = CIRCLE ( 'NONE', #104, 8.000000000000000000 ) ;
#60 = FACE_OUTER_BOUND ( 'NONE', #234, .T. ) ;
#61 = PRODUCT_DEFINITION_SHAPE ( 'NONE', 'NONE',  #6 ) ;
#62 = DIRECTION ( 'NONE',  ( 0.000000000000000000, 0.000000000000000000, 1.000000000000000000 ) ) ;
#63 = DATE_AND_TIME ( #230, #224 ) ;
#64 = CIRCLE ( 'NONE', #22, 8.000000000000000000 ) ;
#65 = APPLICATION_PROTOCOL_DEFINITION ( 'international standard', 'config_control_design', 1994, #145 ) ;
#66 = ORIENTED_EDGE ( 'NONE', *, *, #13, .F. ) ;
#67 = PERSON_AND_ORGANIZATION ( #9, #274 ) ;
#68 = EDGE_CURVE ( 'NONE', #1, #119, #286, .T. ) ;
#69 = DIRECTION ( 'NONE',  ( 0.000000000000000000, 0.000000000000000000, 1.000000000000000000 ) ) ;
#70 = VERTEX_POINT ( 'NONE', #168 ) ;
#71 = PRODUCT_DEFINITION_FORMATION_WITH_SPECIFIED_SOURCE ( 'LIBOVOLNÝ', '', #80, .NOT_KNOWN. ) ;
#72 = DATE_AND_TIME ( #131, #228 ) ;
#73 = FACE_OUTER_BOUND ( 'NONE', #161, .T. ) ;
#74 = CARTESIAN_POINT ( 'NONE',  ( 8.000000000000000000, 9.797174393178825657E-16, 5.000000000000000000 ) ) ;
#75 = CC_DESIGN_APPROVAL ( #293, ( #263 ) ) ;
#76 = CARTESIAN_POINT ( 'NONE',  ( -8.000000000000000000, 0.000000000000000000, 5.000000000000000000 ) ) ;
#77 = CARTESIAN_POINT ( 'NONE',  ( 0.000000000000000000, 0.000000000000000000, 5.199999999999996625 ) ) ;
#78 = DIRECTION ( 'NONE',  ( 0.000000000000000000, -1.000000000000000000, 0.000000000000000000 ) ) ;
#79 = DIRECTION ( 'NONE',  ( 1.000000000000000000, 0.000000000000000000, 0.000000000000000000 ) ) ;
#80 = PRODUCT ( '5358', '5358', '', ( #280 ) ) ;
#81 = PLANE ( 'NONE',  #11 ) ;
#82 = CARTESIAN_POINT ( 'NONE',  ( -8.000000000000000000, 0.000000000000000000, 0.000000000000000000 ) ) ;
#83 = AXIS2_PLACEMENT_3D ( 'NONE', #175, #177, #39 ) ;
#84 = DIRECTION ( 'NONE',  ( -0.000000000000000000, -0.000000000000000000, -1.000000000000000000 ) ) ;
#85 = PERSON_AND_ORGANIZATION ( #9, #274 ) ;
#86 = DATE_AND_TIME ( #300, #173 ) ;
#87 = CC_DESIGN_APPROVAL ( #16, ( #71 ) ) ;
#88 = DATE_TIME_ROLE ( 'creation_date' ) ;
#89 = ORIENTED_EDGE ( 'NONE', *, *, #195, .F. ) ;
#90 = PERSON_AND_ORGANIZATION ( #9, #274 ) ;
#91 = EDGE_CURVE ( 'NONE', #264, #184, #253, .T. ) ;
#92 = DATE_AND_TIME ( #181, #215 ) ;
#93 = SHAPE_DEFINITION_REPRESENTATION ( #61, #101 ) ;
#94 = CC_DESIGN_PERSON_AND_ORGANIZATION_ASSIGNMENT ( #20, #111, ( #71 ) ) ;
#95 = EDGE_LOOP ( 'NONE', ( #114, #160 ) ) ;
#96 = CARTESIAN_POINT ( 'NONE',  ( 5.000000000000000000, 6.123233995736766282E-16, 105.0000000000000142 ) ) ;
#97 = DIRECTION ( 'NONE',  ( 0.000000000000000000, 0.000000000000000000, 1.000000000000000000 ) ) ;
#98 = AXIS2_PLACEMENT_3D ( 'NONE', #54, #217, #2 ) ;
#99 = CIRCLE ( 'NONE', #83, 8.000000000000000000 ) ;
#100 = ORIENTED_EDGE ( 'NONE', *, *, #27, .T. ) ;
#101 = ADVANCED_BREP_SHAPE_REPRESENTATION ( '5358', ( #284, #121 ), #18 ) ;
#102 = CYLINDRICAL_SURFACE ( 'NONE', #272, 5.000000000000000000 ) ;
#103 = CARTESIAN_POINT ( 'NONE',  ( 0.000000000000000000, 0.000000000000000000, 105.0000000000000142 ) ) ;
#104 = AXIS2_PLACEMENT_3D ( 'NONE', #33, #226, #79 ) ;
#105 = FACE_OUTER_BOUND ( 'NONE', #95, .T. ) ;
#106 = CARTESIAN_POINT ( 'NONE',  ( 0.000000000000000000, 0.000000000000000000, 105.0000000000000142 ) ) ;
#107 = CARTESIAN_POINT ( 'NONE',  ( -5.000000000000000000, 0.000000000000000000, 5.199999999999996625 ) ) ;
#108 = DIRECTION ( 'NONE',  ( 1.000000000000000000, 0.000000000000000000, 0.000000000000000000 ) ) ;
#109 = PERSON_AND_ORGANIZATION ( #9, #274 ) ;
#110 = CIRCLE ( 'NONE', #292, 5.200000000000000178 ) ;
#111 = PERSON_AND_ORGANIZATION_ROLE ( 'creator' ) ;
#112 = ORIENTED_EDGE ( 'NONE', *, *, #27, .F. ) ;
#113 = CALENDAR_DATE ( 2022, 7, 7 ) ;
#114 = ORIENTED_EDGE ( 'NONE', *, *, #238, .T. ) ;
#115 = AXIS2_PLACEMENT_3D ( 'NONE', #77, #169, #144 ) ;
#116 = ORIENTED_EDGE ( 'NONE', *, *, #152, .F. ) ;
#117 = CIRCLE ( 'NONE', #154, 5.200000000000000178 ) ;
#118 = DIRECTION ( 'NONE',  ( -0.000000000000000000, -0.000000000000000000, -1.000000000000000000 ) ) ;
#119 = VERTEX_POINT ( 'NONE', #122 ) ;
#120 = EDGE_LOOP ( 'NONE', ( #306, #21, #237, #220 ) ) ;
#121 = AXIS2_PLACEMENT_3D ( 'NONE', #47, #69, #43 ) ;
#122 = CARTESIAN_POINT ( 'NONE',  ( 5.000000000000000000, 6.123233995736766282E-16, 5.199999999999996625 ) ) ;
#123 = CARTESIAN_POINT ( 'NONE',  ( -5.200000000000000178, 6.368163355566236381E-16, 4.999999999999998224 ) ) ;
#124 = CARTESIAN_POINT ( 'NONE',  ( -5.000000000000000000, 0.000000000000000000, 105.0000000000000142 ) ) ;
#125 = APPROVAL_PERSON_ORGANIZATION ( #44, #293, #257 ) ;
#126 = DIRECTION ( 'NONE',  ( 1.000000000000000000, 0.000000000000000000, 0.000000000000000000 ) ) ;
#127 = CARTESIAN_POINT ( 'NONE',  ( 0.000000000000000000, 0.000000000000000000, 105.0000000000000142 ) ) ;
#128 = DIRECTION ( 'NONE',  ( -1.000000000000000000, 0.000000000000000000, 0.000000000000000000 ) ) ;
#129 = APPROVAL_STATUS ( 'not_yet_approved' ) ;
#130 = EDGE_CURVE ( 'NONE', #119, #264, #178, .T. ) ;
#131 = CALENDAR_DATE ( 2022, 7, 7 ) ;
#132 = DATE_AND_TIME ( #113, #192 ) ;
#133 = VECTOR ( 'NONE', #167, 1000.000000000000000 ) ;
#134 = CC_DESIGN_APPROVAL ( #279, ( #6 ) ) ;
#135 = PERSON_AND_ORGANIZATION_ROLE ( 'design_owner' ) ;
#136 = ORIENTED_EDGE ( 'NONE', *, *, #221, .F. ) ;
#137 =( NAMED_UNIT ( * ) SI_UNIT ( $, .STERADIAN. ) SOLID_ANGLE_UNIT ( ) );
#138 = EDGE_LOOP ( 'NONE', ( #116, #48, #164, #281 ) ) ;
#139 = DIRECTION ( 'NONE',  ( -1.000000000000000000, 0.000000000000000000, 0.000000000000000000 ) ) ;
#140 = ORIENTED_EDGE ( 'NONE', *, *, #130, .T. ) ;
#141 = CARTESIAN_POINT ( 'NONE',  ( -8.000000000000000000, 0.000000000000000000, 5.000000000000000000 ) ) ;
#142 = ADVANCED_FACE ( 'NONE', ( #235, #25 ), #151, .T. ) ;
#143 = DIRECTION ( 'NONE',  ( 1.224646799147353207E-16, 1.000000000000000000, -0.000000000000000000 ) ) ;
#144 = DIRECTION ( 'NONE',  ( 1.000000000000000000, 0.000000000000000000, 0.000000000000000000 ) ) ;
#145 = APPLICATION_CONTEXT ( 'configuration controlled 3d designs of mechanical parts and assemblies' ) ;
#146 = CARTESIAN_POINT ( 'NONE',  ( 0.000000000000000000, 0.000000000000000000, 105.0000000000000142 ) ) ;
#147 = DIRECTION ( 'NONE',  ( 0.000000000000000000, 0.000000000000000000, 1.000000000000000000 ) ) ;
#148 = DIRECTION ( 'NONE',  ( -1.000000000000000000, 0.000000000000000000, 0.000000000000000000 ) ) ;
#149 = CIRCLE ( 'NONE', #278, 5.000000000000000000 ) ;
#150 = DIRECTION ( 'NONE',  ( 0.000000000000000000, 0.000000000000000000, -1.000000000000000000 ) ) ;
#151 = PLANE ( 'NONE',  #291 ) ;
#152 = EDGE_CURVE ( 'NONE', #264, #119, #287, .T. ) ;
#153 = APPROVAL_DATE_TIME ( #63, #16 ) ;
#154 = AXIS2_PLACEMENT_3D ( 'NONE', #247, #38, #275 ) ;
#155 = TOROIDAL_SURFACE ( 'NONE', #166, 5.200000000000000178, 0.2000000000000000111 ) ;
#156 = APPROVAL_ROLE ( '' ) ;
#157 = ORIENTED_EDGE ( 'NONE', *, *, #208, .F. ) ;
#158 = ORIENTED_EDGE ( 'NONE', *, *, #13, .T. ) ;
#159 = APPROVAL_STATUS ( 'not_yet_approved' ) ;
#160 = ORIENTED_EDGE ( 'NONE', *, *, #208, .T. ) ;
#161 = EDGE_LOOP ( 'NONE', ( #196, #231 ) ) ;
#162 = APPLICATION_CONTEXT ( 'configuration controlled 3d designs of mechanical parts and assemblies' ) ;
#163 = CC_DESIGN_PERSON_AND_ORGANIZATION_ASSIGNMENT ( #90, #206, ( #71 ) ) ;
#164 = ORIENTED_EDGE ( 'NONE', *, *, #305, .F. ) ;
#165 = PLANE ( 'NONE',  #172 ) ;
#166 = AXIS2_PLACEMENT_3D ( 'NONE', #179, #14, #252 ) ;
#167 = DIRECTION ( 'NONE',  ( -0.000000000000000000, -0.000000000000000000, -1.000000000000000000 ) ) ;
#168 = CARTESIAN_POINT ( 'NONE',  ( 8.000000000000000000, 9.797174393178825657E-16, 5.000000000000000000 ) ) ;
#169 = DIRECTION ( 'NONE',  ( 0.000000000000000000, 0.000000000000000000, 1.000000000000000000 ) ) ;
#170 = CC_DESIGN_PERSON_AND_ORGANIZATION_ASSIGNMENT ( #233, #277, ( #6 ) ) ;
#171 = DIRECTION ( 'NONE',  ( 1.000000000000000000, 0.000000000000000000, -0.000000000000000000 ) ) ;
#172 = AXIS2_PLACEMENT_3D ( 'NONE', #3, #97, #193 ) ;
#173 = LOCAL_TIME ( 14, 28, 44.00000000000000000, #185 ) ;
#174 = CARTESIAN_POINT ( 'NONE',  ( 8.000000000000000000, 9.797174393178825657E-16, 0.000000000000000000 ) ) ;
#175 = CARTESIAN_POINT ( 'NONE',  ( 0.000000000000000000, 0.000000000000000000, 5.000000000000000000 ) ) ;
#176 = EDGE_CURVE ( 'NONE', #119, #29, #31, .T. ) ;
#177 = DIRECTION ( 'NONE',  ( 0.000000000000000000, 0.000000000000000000, 1.000000000000000000 ) ) ;
#178 = CIRCLE ( 'NONE', #115, 5.000000000000000000 ) ;
#179 = CARTESIAN_POINT ( 'NONE',  ( 0.000000000000000000, 0.000000000000000000, 5.199999999999996625 ) ) ;
#180 = ADVANCED_FACE ( 'NONE', ( #12 ), #155, .F. ) ;
#181 = CALENDAR_DATE ( 2022, 7, 7 ) ;
#182 = AXIS2_PLACEMENT_3D ( 'NONE', #223, #84, #148 ) ;
#183 = COORDINATED_UNIVERSAL_TIME_OFFSET ( 1, 0, .AHEAD. ) ;
#184 = VERTEX_POINT ( 'NONE', #123 ) ;
#185 = COORDINATED_UNIVERSAL_TIME_OFFSET ( 1, 0, .AHEAD. ) ;
#186 = PERSON_AND_ORGANIZATION ( #9, #274 ) ;
#187 = VERTEX_POINT ( 'NONE', #268 ) ;
#188 = CC_DESIGN_DATE_AND_TIME_ASSIGNMENT ( #86, #254, ( #263 ) ) ;
#189 = VECTOR ( 'NONE', #203, 1000.000000000000000 ) ;
#190 = ORIENTED_EDGE ( 'NONE', *, *, #265, .T. ) ;
#191 = CLOSED_SHELL ( 'NONE', ( #180, #213, #271, #250, #142, #34, #46, #202, #40 ) ) ;
#192 = LOCAL_TIME ( 14, 28, 44.00000000000000000, #24 ) ;
#193 = DIRECTION ( 'NONE',  ( 1.000000000000000000, 0.000000000000000000, -0.000000000000000000 ) ) ;
#194 = CARTESIAN_POINT ( 'NONE',  ( 5.000000000000000000, 6.123233995736766282E-16, 105.0000000000000142 ) ) ;
#195 = EDGE_CURVE ( 'NONE', #51, #70, #99, .T. ) ;
#196 = ORIENTED_EDGE ( 'NONE', *, *, #244, .F. ) ;
#197 = DIRECTION ( 'NONE',  ( 0.000000000000000000, 0.000000000000000000, 1.000000000000000000 ) ) ;
#198 = AXIS2_PLACEMENT_3D ( 'NONE', #295, #78, #150 ) ;
#199 = CC_DESIGN_PERSON_AND_ORGANIZATION_ASSIGNMENT ( #109, #135, ( #80 ) ) ;
#200 = DIRECTION ( 'NONE',  ( -0.000000000000000000, -0.000000000000000000, -1.000000000000000000 ) ) ;
#201 = DIRECTION ( 'NONE',  ( 1.000000000000000000, 0.000000000000000000, 0.000000000000000000 ) ) ;
#202 = ADVANCED_FACE ( 'NONE', ( #105 ), #81, .T. ) ;
#203 = DIRECTION ( 'NONE',  ( -0.000000000000000000, -0.000000000000000000, -1.000000000000000000 ) ) ;
#204 = CIRCLE ( 'NONE', #37, 5.000000000000000000 ) ;
#205 = DIRECTION ( 'NONE',  ( 1.000000000000000000, 0.000000000000000000, -0.000000000000000000 ) ) ;
#206 = PERSON_AND_ORGANIZATION_ROLE ( 'design_supplier' ) ;
#207 =( NAMED_UNIT ( * ) PLANE_ANGLE_UNIT ( ) SI_UNIT ( $, .RADIAN. ) );
#208 = EDGE_CURVE ( 'NONE', #1, #187, #149, .T. ) ;
#209 = ORIENTED_EDGE ( 'NONE', *, *, #265, .F. ) ;
#210 = AXIS2_PLACEMENT_3D ( 'NONE', #28, #50, #266 ) ;
#211 = PERSON_AND_ORGANIZATION_ROLE ( 'classification_officer' ) ;
#212 =( LENGTH_UNIT ( ) NAMED_UNIT ( * ) SI_UNIT ( .MILLI., .METRE. ) );
#213 = ADVANCED_FACE ( 'NONE', ( #60 ), #55, .T. ) ;
#214 = APPROVAL_DATE_TIME ( #72, #293 ) ;
#215 = LOCAL_TIME ( 14, 28, 44.00000000000000000, #299 ) ;
#216 = ORIENTED_EDGE ( 'NONE', *, *, #195, .T. ) ;
#217 = DIRECTION ( 'NONE',  ( 0.000000000000000000, 0.000000000000000000, 1.000000000000000000 ) ) ;
#218 = DIRECTION ( 'NONE',  ( -0.000000000000000000, -0.000000000000000000, -1.000000000000000000 ) ) ;
#219 = CARTESIAN_POINT ( 'NONE',  ( 5.200000000000000178, 0.000000000000000000, 4.999999999999998224 ) ) ;
#220 = ORIENTED_EDGE ( 'NONE', *, *, #240, .F. ) ;
#221 = EDGE_CURVE ( 'NONE', #70, #51, #64, .T. ) ;
#222 = DIRECTION ( 'NONE',  ( 0.000000000000000000, 0.000000000000000000, 1.000000000000000000 ) ) ;
#223 = CARTESIAN_POINT ( 'NONE',  ( 0.000000000000000000, 0.000000000000000000, 5.000000000000000000 ) ) ;
#224 = LOCAL_TIME ( 14, 28, 44.00000000000000000, #183 ) ;
#225 = CARTESIAN_POINT ( 'NONE',  ( 0.000000000000000000, 0.000000000000000000, 5.199999999999996625 ) ) ;
#226 = DIRECTION ( 'NONE',  ( 0.000000000000000000, 0.000000000000000000, 1.000000000000000000 ) ) ;
#227 = CARTESIAN_POINT ( 'NONE',  ( 0.000000000000000000, 0.000000000000000000, 5.000000000000000000 ) ) ;
#228 = LOCAL_TIME ( 14, 28, 44.00000000000000000, #23 ) ;
#229 = SECURITY_CLASSIFICATION_LEVEL ( 'unclassified' ) ;
#230 = CALENDAR_DATE ( 2022, 7, 7 ) ;
#231 = ORIENTED_EDGE ( 'NONE', *, *, #56, .F. ) ;
#232 = CC_DESIGN_PERSON_AND_ORGANIZATION_ASSIGNMENT ( #186, #211, ( #263 ) ) ;
#233 = PERSON_AND_ORGANIZATION ( #9, #274 ) ;
#234 = EDGE_LOOP ( 'NONE', ( #157, #7, #140, #209 ) ) ;
#235 = FACE_BOUND ( 'NONE', #302, .T. ) ;
#236 = AXIS2_PLACEMENT_3D ( 'NONE', #225, #10, #126 ) ;
#237 = ORIENTED_EDGE ( 'NONE', *, *, #176, .T. ) ;
#238 = EDGE_CURVE ( 'NONE', #187, #1, #204, .T. ) ;
#239 = ORIENTED_EDGE ( 'NONE', *, *, #238, .F. ) ;
#240 = EDGE_CURVE ( 'NONE', #184, #29, #110, .T. ) ;
#241 = ORIENTED_EDGE ( 'NONE', *, *, #221, .T. ) ;
#242 = VERTEX_POINT ( 'NONE', #174 ) ;
#243 = DIRECTION ( 'NONE',  ( 1.000000000000000000, 0.000000000000000000, 0.000000000000000000 ) ) ;
#244 = EDGE_CURVE ( 'NONE', #256, #242, #59, .T. ) ;
#245 = DIRECTION ( 'NONE',  ( -1.000000000000000000, 0.000000000000000000, 0.000000000000000000 ) ) ;
#246 = PRODUCT_RELATED_PRODUCT_CATEGORY ( 'detail', '', ( #80 ) ) ;
#247 = CARTESIAN_POINT ( 'NONE',  ( 0.000000000000000000, 0.000000000000000000, 5.000000000000000000 ) ) ;
#248 = CC_DESIGN_SECURITY_CLASSIFICATION ( #263, ( #71 ) ) ;
#249 = UNCERTAINTY_MEASURE_WITH_UNIT (LENGTH_MEASURE( 1.000000000000000082E-05 ), #212, 'distance_accuracy_value', 'NONE');
#250 = ADVANCED_FACE ( 'NONE', ( #57 ), #296, .T. ) ;
#251 = CARTESIAN_POINT ( 'NONE',  ( 0.000000000000000000, 0.000000000000000000, 5.000000000000000000 ) ) ;
#252 = DIRECTION ( 'NONE',  ( 1.000000000000000000, 0.000000000000000000, 0.000000000000000000 ) ) ;
#253 = CIRCLE ( 'NONE', #4, 0.1999999999999996503 ) ;
#254 = DATE_TIME_ROLE ( 'classification_date' ) ;
#255 = EDGE_LOOP ( 'NONE', ( #136, #158, #267, #112 ) ) ;
#256 = VERTEX_POINT ( 'NONE', #82 ) ;
#257 = APPROVAL_ROLE ( '' ) ;
#258 = ORIENTED_EDGE ( 'NONE', *, *, #240, .T. ) ;
#259 = APPLICATION_PROTOCOL_DEFINITION ( 'international standard', 'config_control_design', 1994, #162 ) ;
#260 = EDGE_LOOP ( 'NONE', ( #216, #241 ) ) ;
#261 = LINE ( 'NONE', #74, #307 ) ;
#262 = FACE_OUTER_BOUND ( 'NONE', #120, .T. ) ;
#263 = SECURITY_CLASSIFICATION ( '', '', #229 ) ;
#264 = VERTEX_POINT ( 'NONE', #107 ) ;
#265 = EDGE_CURVE ( 'NONE', #187, #264, #35, .T. ) ;
#266 = DIRECTION ( 'NONE',  ( 1.000000000000000000, 0.000000000000000000, 0.000000000000000000 ) ) ;
#267 = ORIENTED_EDGE ( 'NONE', *, *, #56, .T. ) ;
#268 = CARTESIAN_POINT ( 'NONE',  ( -5.000000000000000000, 0.000000000000000000, 105.0000000000000142 ) ) ;
#269 = CARTESIAN_POINT ( 'NONE',  ( 0.000000000000000000, 0.000000000000000000, 5.000000000000000000 ) ) ;
#270 = DIRECTION ( 'NONE',  ( 0.000000000000000000, 0.000000000000000000, 1.000000000000000000 ) ) ;
#271 = ADVANCED_FACE ( 'NONE', ( #273 ), #298, .T. ) ;
#272 = AXIS2_PLACEMENT_3D ( 'NONE', #32, #118, #139 ) ;
#273 = FACE_OUTER_BOUND ( 'NONE', #255, .T. ) ;
#274 = ORGANIZATION ( 'NEURÈENÝ', 'NEURÈENÝ', '' ) ;
#275 = DIRECTION ( 'NONE',  ( 1.000000000000000000, 0.000000000000000000, 0.000000000000000000 ) ) ;
#276 = APPROVAL_ROLE ( '' ) ;
#277 = PERSON_AND_ORGANIZATION_ROLE ( 'creator' ) ;
#278 = AXIS2_PLACEMENT_3D ( 'NONE', #103, #270, #201 ) ;
#279 = APPROVAL ( #19, 'NEURÈENÝ' ) ;
#280 = MECHANICAL_CONTEXT ( 'NONE', #145, 'mechanical' ) ;
#281 = ORIENTED_EDGE ( 'NONE', *, *, #176, .F. ) ;
#282 = ORIENTED_EDGE ( 'NONE', *, *, #244, .T. ) ;
#283 = APPROVAL_PERSON_ORGANIZATION ( #85, #16, #156 ) ;
#284 = MANIFOLD_SOLID_BREP ( 'Zaoblit1', #191 ) ;
#285 = ORIENTED_EDGE ( 'NONE', *, *, #68, .F. ) ;
#286 = LINE ( 'NONE', #96, #133 ) ;
#287 = CIRCLE ( 'NONE', #236, 5.000000000000000000 ) ;
#288 = FACE_OUTER_BOUND ( 'NONE', #289, .T. ) ;
#289 = EDGE_LOOP ( 'NONE', ( #285, #239, #190, #304 ) ) ;
#290 = DIRECTION ( 'NONE',  ( -0.000000000000000000, -0.000000000000000000, -1.000000000000000000 ) ) ;
#291 = AXIS2_PLACEMENT_3D ( 'NONE', #269, #62, #171 ) ;
#292 = AXIS2_PLACEMENT_3D ( 'NONE', #297, #200, #243 ) ;
#293 = APPROVAL ( #159, 'NEURÈENÝ' ) ;
#294 = APPROVAL_PERSON_ORGANIZATION ( #67, #279, #276 ) ;
#295 = CARTESIAN_POINT ( 'NONE',  ( 5.200000000000000178, 0.000000000000000000, 5.199999999999996625 ) ) ;
#296 = CYLINDRICAL_SURFACE ( 'NONE', #303, 8.000000000000000000 ) ;
#297 = CARTESIAN_POINT ( 'NONE',  ( 0.000000000000000000, 0.000000000000000000, 5.000000000000000000 ) ) ;
#298 = CYLINDRICAL_SURFACE ( 'NONE', #182, 8.000000000000000000 ) ;
#299 = COORDINATED_UNIVERSAL_TIME_OFFSET ( 1, 0, .AHEAD. ) ;
#300 = CALENDAR_DATE ( 2022, 7, 7 ) ;
#301 = APPROVAL_DATE_TIME ( #132, #279 ) ;
#302 = EDGE_LOOP ( 'NONE', ( #45, #258 ) ) ;
#303 = AXIS2_PLACEMENT_3D ( 'NONE', #251, #15, #245 ) ;
#304 = ORIENTED_EDGE ( 'NONE', *, *, #152, .T. ) ;
#305 = EDGE_CURVE ( 'NONE', #29, #184, #117, .T. ) ;
#306 = ORIENTED_EDGE ( 'NONE', *, *, #91, .F. ) ;
#307 = VECTOR ( 'NONE', #290, 1000.000000000000000 ) ;
ENDSEC;
END-ISO-10303-21;
