ISO-10303-21;
HEADER;
FILE_DESCRIPTION (( 'STEP AP203' ),
    '1' );
FILE_NAME ('0f1f.STEP',
    '2022-07-07T12:44:38',
    ( '' ),
    ( '' ),
    'SwSTEP 2.0',
    'SolidWorks 2019',
    '' );
FILE_SCHEMA (( 'CONFIG_CONTROL_DESIGN' ));
ENDSEC;

DATA;
#1 = CYLINDRICAL_SURFACE ( 'NONE', #159, 5.000000000000000000 ) ;
#2 = PRODUCT_DEFINITION_SHAPE ( 'NONE', 'NONE',  #129 ) ;
#3 = DIRECTION ( 'NONE',  ( 0.000000000000000000, 0.000000000000000000, 1.000000000000000000 ) ) ;
#4 = CC_DESIGN_PERSON_AND_ORGANIZATION_ASSIGNMENT ( #302, #90, ( #250 ) ) ;
#5 = AXIS2_PLACEMENT_3D ( 'NONE', #51, #128, #267 ) ;
#6 = EDGE_LOOP ( 'NONE', ( #167, #126, #39, #46 ) ) ;
#7 = LINE ( 'NONE', #100, #292 ) ;
#8 = LINE ( 'NONE', #58, #282 ) ;
#9 = CARTESIAN_POINT ( 'NONE',  ( 0.000000000000000000, 0.000000000000000000, 3.199999999999980638 ) ) ;
#10 = CC_DESIGN_APPROVAL ( #210, ( #106 ) ) ;
#11 = CYLINDRICAL_SURFACE ( 'NONE', #212, 5.000000000000000000 ) ;
#12 = FACE_OUTER_BOUND ( 'NONE', #63, .T. ) ;
#13 = DIRECTION ( 'NONE',  ( 1.000000000000000000, 0.000000000000000000, -0.000000000000000000 ) ) ;
#14 = APPROVAL_PERSON_ORGANIZATION ( #256, #117, #235 ) ;
#15 = PERSON_AND_ORGANIZATION ( #112, #42 ) ;
#16 = DATE_AND_TIME ( #65, #79 ) ;
#17 = APPLICATION_CONTEXT ( 'configuration controlled 3d designs of mechanical parts and assemblies' ) ;
#18 = LOCAL_TIME ( 14, 44, 38.00000000000000000, #37 ) ;
#19 = COORDINATED_UNIVERSAL_TIME_OFFSET ( 1, 0, .AHEAD. ) ;
#20 = VERTEX_POINT ( 'NONE', #29 ) ;
#21 = APPROVAL_ROLE ( '' ) ;
#22 = DIRECTION ( 'NONE',  ( 1.000000000000000000, 0.000000000000000000, 0.000000000000000000 ) ) ;
#23 = CIRCLE ( 'NONE', #172, 5.000000000000000000 ) ;
#24 = CALENDAR_DATE ( 2022, 7, 7 ) ;
#25 = DIRECTION ( 'NONE',  ( 1.224646799147353207E-16, 1.000000000000000000, -0.000000000000000000 ) ) ;
#26 = EDGE_CURVE ( 'NONE', #266, #145, #49, .T. ) ;
#27 = ORIENTED_EDGE ( 'NONE', *, *, #230, .T. ) ;
#28 = ORIENTED_EDGE ( 'NONE', *, *, #137, .F. ) ;
#29 = CARTESIAN_POINT ( 'NONE',  ( -5.000000000000000000, 0.000000000000000000, 3.000000000000000000 ) ) ;
#30 = CARTESIAN_POINT ( 'NONE',  ( 0.000000000000000000, 0.000000000000000000, 0.000000000000000000 ) ) ;
#31 = MANIFOLD_SOLID_BREP ( 'Zaoblit1', #147 ) ;
#32 = DIRECTION ( 'NONE',  ( 1.000000000000000000, 0.000000000000000000, 0.000000000000000000 ) ) ;
#33 = AXIS2_PLACEMENT_3D ( 'NONE', #136, #138, #184 ) ;
#34 = EDGE_CURVE ( 'NONE', #287, #53, #264, .T. ) ;
#35 = CARTESIAN_POINT ( 'NONE',  ( 0.000000000000000000, 0.000000000000000000, 3.199999999999980638 ) ) ;
#36 = DIRECTION ( 'NONE',  ( 1.000000000000000000, 0.000000000000000000, 0.000000000000000000 ) ) ;
#37 = COORDINATED_UNIVERSAL_TIME_OFFSET ( 1, 0, .AHEAD. ) ;
#38 = AXIS2_PLACEMENT_3D ( 'NONE', #111, #271, #293 ) ;
#39 = ORIENTED_EDGE ( 'NONE', *, *, #26, .T. ) ;
#40 = PERSON_AND_ORGANIZATION_ROLE ( 'design_owner' ) ;
#41 = CALENDAR_DATE ( 2022, 7, 7 ) ;
#42 = ORGANIZATION ( 'NEURÈENÝ', 'NEURÈENÝ', '' ) ;
#43 = APPROVAL_STATUS ( 'not_yet_approved' ) ;
#44 = PRODUCT_RELATED_PRODUCT_CATEGORY ( 'detail', '', ( #199 ) ) ;
#45 = ORIENTED_EDGE ( 'NONE', *, *, #295, .T. ) ;
#46 = ORIENTED_EDGE ( 'NONE', *, *, #122, .F. ) ;
#47 = FACE_OUTER_BOUND ( 'NONE', #189, .T. ) ;
#48 = ADVANCED_FACE ( 'NONE', ( #263 ), #150, .T. ) ;
#49 = CIRCLE ( 'NONE', #224, 0.2000000000000000944 ) ;
#50 = CC_DESIGN_APPROVAL ( #77, ( #129 ) ) ;
#51 = CARTESIAN_POINT ( 'NONE',  ( 0.000000000000000000, 0.000000000000000000, 3.000000000000000000 ) ) ;
#52 = FACE_OUTER_BOUND ( 'NONE', #238, .T. ) ;
#53 = VERTEX_POINT ( 'NONE', #265 ) ;
#54 = DIRECTION ( 'NONE',  ( 0.000000000000000000, 0.000000000000000000, 1.000000000000000000 ) ) ;
#55 = CARTESIAN_POINT ( 'NONE',  ( 2.600000000000000089, 3.184081677783118191E-16, 3.199999999999980638 ) ) ;
#56 = DIRECTION ( 'NONE',  ( 1.000000000000000000, 0.000000000000000000, 0.000000000000000000 ) ) ;
#57 = CC_DESIGN_PERSON_AND_ORGANIZATION_ASSIGNMENT ( #120, #87, ( #250 ) ) ;
#58 = CARTESIAN_POINT ( 'NONE',  ( 2.600000000000000089, 3.184081677783118191E-16, 318.0000000000000000 ) ) ;
#59 = CIRCLE ( 'NONE', #231, 5.000000000000000000 ) ;
#60 = CARTESIAN_POINT ( 'NONE',  ( 0.000000000000000000, 0.000000000000000000, 3.000000000000000000 ) ) ;
#61 = PERSON_AND_ORGANIZATION ( #112, #42 ) ;
#62 = ADVANCED_FACE ( 'NONE', ( #52 ), #242, .F. ) ;
#63 = EDGE_LOOP ( 'NONE', ( #151, #102 ) ) ;
#64 = CIRCLE ( 'NONE', #297, 2.600000000000000089 ) ;
#65 = CALENDAR_DATE ( 2022, 7, 7 ) ;
#66 = VERTEX_POINT ( 'NONE', #76 ) ;
#67 = ORIENTED_EDGE ( 'NONE', *, *, #233, .T. ) ;
#68 = CC_DESIGN_DATE_AND_TIME_ASSIGNMENT ( #191, #281, ( #106 ) ) ;
#69 = CIRCLE ( 'NONE', #130, 2.600000000000000089 ) ;
#70 = VERTEX_POINT ( 'NONE', #123 ) ;
#71 = DIRECTION ( 'NONE',  ( -1.000000000000000000, 0.000000000000000000, 0.000000000000000000 ) ) ;
#72 = CARTESIAN_POINT ( 'NONE',  ( 0.000000000000000000, 0.000000000000000000, 318.0000000000000000 ) ) ;
#73 = VECTOR ( 'NONE', #157, 1000.000000000000000 ) ;
#74 = CARTESIAN_POINT ( 'NONE',  ( 0.000000000000000000, 0.000000000000000000, 3.199999999999980638 ) ) ;
#75 = ADVANCED_FACE ( 'NONE', ( #173 ), #245, .T. ) ;
#76 = CARTESIAN_POINT ( 'NONE',  ( 2.600000000000000089, 3.184081677783118191E-16, 318.0000000000000000 ) ) ;
#77 = APPROVAL ( #237, 'NEURÈENÝ' ) ;
#78 = FACE_OUTER_BOUND ( 'NONE', #307, .T. ) ;
#79 = LOCAL_TIME ( 14, 44, 38.00000000000000000, #211 ) ;
#80 = DIRECTION ( 'NONE',  ( 0.000000000000000000, 0.000000000000000000, 1.000000000000000000 ) ) ;
#81 = DIRECTION ( 'NONE',  ( 1.000000000000000000, 0.000000000000000000, 0.000000000000000000 ) ) ;
#82 = CC_DESIGN_DATE_AND_TIME_ASSIGNMENT ( #208, #298, ( #129 ) ) ;
#83 = DIRECTION ( 'NONE',  ( 0.000000000000000000, 0.000000000000000000, 1.000000000000000000 ) ) ;
#84 = TOROIDAL_SURFACE ( 'NONE', #165, 2.799999999999999822, 0.2000000000000000111 ) ;
#85 = DIRECTION ( 'NONE',  ( -0.000000000000000000, -0.000000000000000000, -1.000000000000000000 ) ) ;
#86 = ORIENTED_EDGE ( 'NONE', *, *, #137, .T. ) ;
#87 = PERSON_AND_ORGANIZATION_ROLE ( 'creator' ) ;
#88 = EDGE_LOOP ( 'NONE', ( #218, #153, #67, #214 ) ) ;
#89 = AXIS2_PLACEMENT_3D ( 'NONE', #97, #25, #131 ) ;
#90 = PERSON_AND_ORGANIZATION_ROLE ( 'design_supplier' ) ;
#91 = ORIENTED_EDGE ( 'NONE', *, *, #288, .T. ) ;
#92 = CALENDAR_DATE ( 2022, 7, 7 ) ;
#93 = ORIENTED_EDGE ( 'NONE', *, *, #168, .F. ) ;
#94 = DESIGN_CONTEXT ( 'detailed design', #127, 'design' ) ;
#95 = EDGE_LOOP ( 'NONE', ( #163, #279 ) ) ;
#96 = AXIS2_PLACEMENT_3D ( 'NONE', #74, #155, #32 ) ;
#97 = CARTESIAN_POINT ( 'NONE',  ( -2.799999999999999822, 3.429011037612588783E-16, 3.199999999999980638 ) ) ;
#98 = COORDINATED_UNIVERSAL_TIME_OFFSET ( 1, 0, .AHEAD. ) ;
#99 = ORIENTED_EDGE ( 'NONE', *, *, #209, .F. ) ;
#100 = CARTESIAN_POINT ( 'NONE',  ( 5.000000000000000000, 6.123233995736766282E-16, 3.000000000000000000 ) ) ;
#101 = CIRCLE ( 'NONE', #124, 5.000000000000000000 ) ;
#102 = ORIENTED_EDGE ( 'NONE', *, *, #274, .T. ) ;
#103 = CC_DESIGN_PERSON_AND_ORGANIZATION_ASSIGNMENT ( #280, #213, ( #106 ) ) ;
#104 = ORIENTED_EDGE ( 'NONE', *, *, #34, .T. ) ;
#105 = DIRECTION ( 'NONE',  ( 1.000000000000000000, 0.000000000000000000, 0.000000000000000000 ) ) ;
#106 = SECURITY_CLASSIFICATION ( '', '', #232 ) ;
#107 = EDGE_CURVE ( 'NONE', #20, #70, #59, .T. ) ;
#108 = DIRECTION ( 'NONE',  ( 0.000000000000000000, 0.000000000000000000, 1.000000000000000000 ) ) ;
#109 = DIRECTION ( 'NONE',  ( -0.000000000000000000, -0.000000000000000000, -1.000000000000000000 ) ) ;
#110 = ADVANCED_FACE ( 'NONE', ( #47 ), #1, .T. ) ;
#111 = CARTESIAN_POINT ( 'NONE',  ( 0.000000000000000000, 0.000000000000000000, 318.0000000000000000 ) ) ;
#112 = PERSON ( 'NEURÈENÝ', 'NEURÈENÝ', 'NEURÈENÝ', ('NEURÈENÝ'), ('NEURÈENÝ'), ('NEURÈENÝ') ) ;
#113 = AXIS2_PLACEMENT_3D ( 'NONE', #135, #80, #13 ) ;
#114 = COORDINATED_UNIVERSAL_TIME_OFFSET ( 1, 0, .AHEAD. ) ;
#115 =( LENGTH_UNIT ( ) NAMED_UNIT ( * ) SI_UNIT ( .MILLI., .METRE. ) );
#116 = DIRECTION ( 'NONE',  ( 1.000000000000000000, 0.000000000000000000, 0.000000000000000000 ) ) ;
#117 = APPROVAL ( #141, 'NEURÈENÝ' ) ;
#118 = LOCAL_TIME ( 14, 44, 38.00000000000000000, #114 ) ;
#119 = ORIENTED_EDGE ( 'NONE', *, *, #262, .F. ) ;
#120 = PERSON_AND_ORGANIZATION ( #112, #42 ) ;
#121 = ORIENTED_EDGE ( 'NONE', *, *, #283, .T. ) ;
#122 = EDGE_CURVE ( 'NONE', #53, #145, #306, .T. ) ;
#123 = CARTESIAN_POINT ( 'NONE',  ( 5.000000000000000000, 6.123233995736766282E-16, 3.000000000000000000 ) ) ;
#124 = AXIS2_PLACEMENT_3D ( 'NONE', #182, #272, #229 ) ;
#125 = ORIENTED_EDGE ( 'NONE', *, *, #190, .F. ) ;
#126 = ORIENTED_EDGE ( 'NONE', *, *, #233, .F. ) ;
#127 = APPLICATION_CONTEXT ( 'configuration controlled 3d designs of mechanical parts and assemblies' ) ;
#128 = DIRECTION ( 'NONE',  ( -0.000000000000000000, -0.000000000000000000, -1.000000000000000000 ) ) ;
#129 = PRODUCT_DEFINITION ( 'NEZNÁMÝ', '', #250, #94 ) ;
#130 = AXIS2_PLACEMENT_3D ( 'NONE', #294, #206, #81 ) ;
#131 = DIRECTION ( 'NONE',  ( -1.000000000000000000, 1.224646799147353207E-16, 0.000000000000000000 ) ) ;
#132 = DIRECTION ( 'NONE',  ( 0.000000000000000000, 0.000000000000000000, 1.000000000000000000 ) ) ;
#133 = DIRECTION ( 'NONE',  ( -0.000000000000000000, -0.000000000000000000, -1.000000000000000000 ) ) ;
#134 = EDGE_CURVE ( 'NONE', #70, #261, #7, .T. ) ;
#135 = CARTESIAN_POINT ( 'NONE',  ( 0.000000000000000000, 0.000000000000000000, 3.000000000000000000 ) ) ;
#136 = CARTESIAN_POINT ( 'NONE',  ( 0.000000000000000000, 0.000000000000000000, 3.000000000000000000 ) ) ;
#137 = EDGE_CURVE ( 'NONE', #287, #266, #176, .T. ) ;
#138 = DIRECTION ( 'NONE',  ( 0.000000000000000000, 0.000000000000000000, 1.000000000000000000 ) ) ;
#139 = PERSON_AND_ORGANIZATION_ROLE ( 'creator' ) ;
#140 = CIRCLE ( 'NONE', #207, 2.600000000000000089 ) ;
#141 = APPROVAL_STATUS ( 'not_yet_approved' ) ;
#142 = ADVANCED_FACE ( 'NONE', ( #179 ), #84, .F. ) ;
#143 = CARTESIAN_POINT ( 'NONE',  ( -5.000000000000000000, 0.000000000000000000, 3.000000000000000000 ) ) ;
#144 =( GEOMETRIC_REPRESENTATION_CONTEXT ( 3 ) GLOBAL_UNCERTAINTY_ASSIGNED_CONTEXT ( ( #193 ) ) GLOBAL_UNIT_ASSIGNED_CONTEXT ( ( #115, #169, #164 ) ) REPRESENTATION_CONTEXT ( 'NONE', 'WORKASPACE' ) );
#145 = VERTEX_POINT ( 'NONE', #181 ) ;
#146 = DIRECTION ( 'NONE',  ( 0.000000000000000000, 0.000000000000000000, -1.000000000000000000 ) ) ;
#147 = CLOSED_SHELL ( 'NONE', ( #62, #75, #110, #226, #156, #171, #48, #219, #142 ) ) ;
#148 = LOCAL_TIME ( 14, 44, 38.00000000000000000, #98 ) ;
#149 = SHAPE_DEFINITION_REPRESENTATION ( #2, #239 ) ;
#150 = CYLINDRICAL_SURFACE ( 'NONE', #197, 2.600000000000000089 ) ;
#151 = ORIENTED_EDGE ( 'NONE', *, *, #107, .T. ) ;
#152 = DATE_AND_TIME ( #24, #148 ) ;
#153 = ORIENTED_EDGE ( 'NONE', *, *, #262, .T. ) ;
#154 = AXIS2_PLACEMENT_3D ( 'NONE', #186, #185, #116 ) ;
#155 = DIRECTION ( 'NONE',  ( 0.000000000000000000, 0.000000000000000000, 1.000000000000000000 ) ) ;
#156 = ADVANCED_FACE ( 'NONE', ( #268, #12 ), #252, .T. ) ;
#157 = DIRECTION ( 'NONE',  ( -0.000000000000000000, -0.000000000000000000, -1.000000000000000000 ) ) ;
#158 = PLANE ( 'NONE',  #38 ) ;
#159 = AXIS2_PLACEMENT_3D ( 'NONE', #175, #220, #177 ) ;
#160 = DIRECTION ( 'NONE',  ( -0.000000000000000000, -0.000000000000000000, -1.000000000000000000 ) ) ;
#161 = CARTESIAN_POINT ( 'NONE',  ( -2.600000000000000089, 0.000000000000000000, 3.199999999999980638 ) ) ;
#162 = CALENDAR_DATE ( 2022, 7, 7 ) ;
#163 = ORIENTED_EDGE ( 'NONE', *, *, #168, .T. ) ;
#164 =( NAMED_UNIT ( * ) SI_UNIT ( $, .STERADIAN. ) SOLID_ANGLE_UNIT ( ) );
#165 = AXIS2_PLACEMENT_3D ( 'NONE', #9, #249, #56 ) ;
#166 = MECHANICAL_CONTEXT ( 'NONE', #17, 'mechanical' ) ;
#167 = ORIENTED_EDGE ( 'NONE', *, *, #34, .F. ) ;
#168 = EDGE_CURVE ( 'NONE', #145, #53, #269, .T. ) ;
#169 =( NAMED_UNIT ( * ) PLANE_ANGLE_UNIT ( ) SI_UNIT ( $, .RADIAN. ) );
#170 = PERSON_AND_ORGANIZATION ( #112, #42 ) ;
#171 = ADVANCED_FACE ( 'NONE', ( #296 ), #248, .F. ) ;
#172 = AXIS2_PLACEMENT_3D ( 'NONE', #30, #132, #105 ) ;
#173 = FACE_OUTER_BOUND ( 'NONE', #88, .T. ) ;
#174 = ORIENTED_EDGE ( 'NONE', *, *, #134, .F. ) ;
#175 = CARTESIAN_POINT ( 'NONE',  ( 0.000000000000000000, 0.000000000000000000, 3.000000000000000000 ) ) ;
#176 = CIRCLE ( 'NONE', #96, 2.600000000000000089 ) ;
#177 = DIRECTION ( 'NONE',  ( -1.000000000000000000, 0.000000000000000000, 0.000000000000000000 ) ) ;
#178 = DIRECTION ( 'NONE',  ( 1.000000000000000000, 0.000000000000000000, 0.000000000000000000 ) ) ;
#179 = FACE_OUTER_BOUND ( 'NONE', #6, .T. ) ;
#180 = AXIS2_PLACEMENT_3D ( 'NONE', #289, #243, #22 ) ;
#181 = CARTESIAN_POINT ( 'NONE',  ( 2.799999999999999822, 0.000000000000000000, 2.999999999999990674 ) ) ;
#182 = CARTESIAN_POINT ( 'NONE',  ( 0.000000000000000000, 0.000000000000000000, 0.000000000000000000 ) ) ;
#183 = DIRECTION ( 'NONE',  ( 1.000000000000000000, 0.000000000000000000, -0.000000000000000000 ) ) ;
#184 = DIRECTION ( 'NONE',  ( 1.000000000000000000, 0.000000000000000000, 0.000000000000000000 ) ) ;
#185 = DIRECTION ( 'NONE',  ( 0.000000000000000000, 0.000000000000000000, 1.000000000000000000 ) ) ;
#186 = CARTESIAN_POINT ( 'NONE',  ( 0.000000000000000000, 0.000000000000000000, 0.000000000000000000 ) ) ;
#187 = ORIENTED_EDGE ( 'NONE', *, *, #26, .F. ) ;
#188 = CIRCLE ( 'NONE', #33, 5.000000000000000000 ) ;
#189 = EDGE_LOOP ( 'NONE', ( #284, #276, #257, #240 ) ) ;
#190 = EDGE_CURVE ( 'NONE', #261, #286, #101, .T. ) ;
#191 = DATE_AND_TIME ( #92, #18 ) ;
#192 = ORIENTED_EDGE ( 'NONE', *, *, #288, .F. ) ;
#193 = UNCERTAINTY_MEASURE_WITH_UNIT (LENGTH_MEASURE( 1.000000000000000082E-05 ), #115, 'distance_accuracy_value', 'NONE');
#194 = APPROVAL_DATE_TIME ( #152, #210 ) ;
#195 = CARTESIAN_POINT ( 'NONE',  ( 0.000000000000000000, 0.000000000000000000, 3.000000000000000000 ) ) ;
#196 = DIRECTION ( 'NONE',  ( -0.000000000000000000, -0.000000000000000000, -1.000000000000000000 ) ) ;
#197 = AXIS2_PLACEMENT_3D ( 'NONE', #72, #244, #200 ) ;
#198 = CC_DESIGN_PERSON_AND_ORGANIZATION_ASSIGNMENT ( #260, #139, ( #129 ) ) ;
#199 = PRODUCT ( '0f1f', '0f1f', '', ( #166 ) ) ;
#200 = DIRECTION ( 'NONE',  ( -1.000000000000000000, 0.000000000000000000, 0.000000000000000000 ) ) ;
#201 = CARTESIAN_POINT ( 'NONE',  ( 0.000000000000000000, 0.000000000000000000, 3.000000000000000000 ) ) ;
#202 = LINE ( 'NONE', #143, #301 ) ;
#203 = CC_DESIGN_APPROVAL ( #117, ( #250 ) ) ;
#204 = DIRECTION ( 'NONE',  ( -1.000000000000000000, 0.000000000000000000, 0.000000000000000000 ) ) ;
#205 = FACE_OUTER_BOUND ( 'NONE', #305, .T. ) ;
#206 = DIRECTION ( 'NONE',  ( 0.000000000000000000, 0.000000000000000000, 1.000000000000000000 ) ) ;
#207 = AXIS2_PLACEMENT_3D ( 'NONE', #223, #108, #290 ) ;
#208 = DATE_AND_TIME ( #41, #118 ) ;
#209 = EDGE_CURVE ( 'NONE', #217, #66, #140, .T. ) ;
#210 = APPROVAL ( #43, 'NEURÈENÝ' ) ;
#211 = COORDINATED_UNIVERSAL_TIME_OFFSET ( 1, 0, .AHEAD. ) ;
#212 = AXIS2_PLACEMENT_3D ( 'NONE', #201, #109, #204 ) ;
#213 = PERSON_AND_ORGANIZATION_ROLE ( 'classification_officer' ) ;
#214 = ORIENTED_EDGE ( 'NONE', *, *, #283, .F. ) ;
#215 = ORIENTED_EDGE ( 'NONE', *, *, #209, .T. ) ;
#216 = CARTESIAN_POINT ( 'NONE',  ( 0.000000000000000000, 0.000000000000000000, 318.0000000000000000 ) ) ;
#217 = VERTEX_POINT ( 'NONE', #251 ) ;
#218 = ORIENTED_EDGE ( 'NONE', *, *, #230, .F. ) ;
#219 = ADVANCED_FACE ( 'NONE', ( #78 ), #158, .T. ) ;
#220 = DIRECTION ( 'NONE',  ( -0.000000000000000000, -0.000000000000000000, -1.000000000000000000 ) ) ;
#221 = CC_DESIGN_PERSON_AND_ORGANIZATION_ASSIGNMENT ( #15, #40, ( #199 ) ) ;
#222 = DIRECTION ( 'NONE',  ( 1.000000000000000000, 0.000000000000000000, 0.000000000000000000 ) ) ;
#223 = CARTESIAN_POINT ( 'NONE',  ( 0.000000000000000000, 0.000000000000000000, 318.0000000000000000 ) ) ;
#224 = AXIS2_PLACEMENT_3D ( 'NONE', #241, #246, #146 ) ;
#225 = CC_DESIGN_SECURITY_CLASSIFICATION ( #106, ( #250 ) ) ;
#226 = ADVANCED_FACE ( 'NONE', ( #205 ), #11, .T. ) ;
#227 = CARTESIAN_POINT ( 'NONE',  ( 0.000000000000000000, 0.000000000000000000, 0.000000000000000000 ) ) ;
#228 = CARTESIAN_POINT ( 'NONE',  ( -5.000000000000000000, 0.000000000000000000, 0.000000000000000000 ) ) ;
#229 = DIRECTION ( 'NONE',  ( 1.000000000000000000, 0.000000000000000000, 0.000000000000000000 ) ) ;
#230 = EDGE_CURVE ( 'NONE', #66, #217, #69, .T. ) ;
#231 = AXIS2_PLACEMENT_3D ( 'NONE', #195, #3, #178 ) ;
#232 = SECURITY_CLASSIFICATION_LEVEL ( 'unclassified' ) ;
#233 = EDGE_CURVE ( 'NONE', #266, #287, #64, .T. ) ;
#234 = APPLICATION_PROTOCOL_DEFINITION ( 'international standard', 'config_control_design', 1994, #17 ) ;
#235 = APPROVAL_ROLE ( '' ) ;
#236 = AXIS2_PLACEMENT_3D ( 'NONE', #227, #83, #183 ) ;
#237 = APPROVAL_STATUS ( 'not_yet_approved' ) ;
#238 = EDGE_LOOP ( 'NONE', ( #28, #104, #93, #187 ) ) ;
#239 = ADVANCED_BREP_SHAPE_REPRESENTATION ( '0f1f', ( #31, #154 ), #144 ) ;
#240 = ORIENTED_EDGE ( 'NONE', *, *, #295, .F. ) ;
#241 = CARTESIAN_POINT ( 'NONE',  ( 2.799999999999999822, 0.000000000000000000, 3.199999999999980638 ) ) ;
#242 = TOROIDAL_SURFACE ( 'NONE', #180, 2.799999999999999822, 0.2000000000000000111 ) ;
#243 = DIRECTION ( 'NONE',  ( 0.000000000000000000, 0.000000000000000000, 1.000000000000000000 ) ) ;
#244 = DIRECTION ( 'NONE',  ( -0.000000000000000000, -0.000000000000000000, -1.000000000000000000 ) ) ;
#245 = CYLINDRICAL_SURFACE ( 'NONE', #273, 2.600000000000000089 ) ;
#246 = DIRECTION ( 'NONE',  ( 0.000000000000000000, -1.000000000000000000, 0.000000000000000000 ) ) ;
#247 = APPROVAL_PERSON_ORGANIZATION ( #61, #77, #278 ) ;
#248 = PLANE ( 'NONE',  #236 ) ;
#249 = DIRECTION ( 'NONE',  ( 0.000000000000000000, 0.000000000000000000, 1.000000000000000000 ) ) ;
#250 = PRODUCT_DEFINITION_FORMATION_WITH_SPECIFIED_SOURCE ( 'LIBOVOLNÝ', '', #199, .NOT_KNOWN. ) ;
#251 = CARTESIAN_POINT ( 'NONE',  ( -2.600000000000000089, 0.000000000000000000, 318.0000000000000000 ) ) ;
#252 = PLANE ( 'NONE',  #113 ) ;
#253 = DATE_AND_TIME ( #162, #254 ) ;
#254 = LOCAL_TIME ( 14, 44, 38.00000000000000000, #19 ) ;
#255 = EDGE_LOOP ( 'NONE', ( #192, #125 ) ) ;
#256 = PERSON_AND_ORGANIZATION ( #112, #42 ) ;
#257 = ORIENTED_EDGE ( 'NONE', *, *, #190, .T. ) ;
#258 = APPLICATION_PROTOCOL_DEFINITION ( 'international standard', 'config_control_design', 1994, #127 ) ;
#259 = AXIS2_PLACEMENT_3D ( 'NONE', #60, #133, #36 ) ;
#260 = PERSON_AND_ORGANIZATION ( #112, #42 ) ;
#261 = VERTEX_POINT ( 'NONE', #270 ) ;
#262 = EDGE_CURVE ( 'NONE', #66, #266, #8, .T. ) ;
#263 = FACE_OUTER_BOUND ( 'NONE', #300, .T. ) ;
#264 = CIRCLE ( 'NONE', #89, 0.2000000000000000944 ) ;
#265 = CARTESIAN_POINT ( 'NONE',  ( -2.799999999999999822, 3.429011037612589276E-16, 2.999999999999990674 ) ) ;
#266 = VERTEX_POINT ( 'NONE', #55 ) ;
#267 = DIRECTION ( 'NONE',  ( 1.000000000000000000, 0.000000000000000000, 0.000000000000000000 ) ) ;
#268 = FACE_BOUND ( 'NONE', #95, .T. ) ;
#269 = CIRCLE ( 'NONE', #259, 2.799999999999999822 ) ;
#270 = CARTESIAN_POINT ( 'NONE',  ( 5.000000000000000000, 6.123233995736766282E-16, 0.000000000000000000 ) ) ;
#271 = DIRECTION ( 'NONE',  ( 0.000000000000000000, 0.000000000000000000, 1.000000000000000000 ) ) ;
#272 = DIRECTION ( 'NONE',  ( 0.000000000000000000, 0.000000000000000000, 1.000000000000000000 ) ) ;
#273 = AXIS2_PLACEMENT_3D ( 'NONE', #216, #285, #71 ) ;
#274 = EDGE_CURVE ( 'NONE', #70, #20, #188, .T. ) ;
#275 = LINE ( 'NONE', #291, #73 ) ;
#276 = ORIENTED_EDGE ( 'NONE', *, *, #134, .T. ) ;
#277 = APPROVAL_PERSON_ORGANIZATION ( #170, #210, #21 ) ;
#278 = APPROVAL_ROLE ( '' ) ;
#279 = ORIENTED_EDGE ( 'NONE', *, *, #122, .T. ) ;
#280 = PERSON_AND_ORGANIZATION ( #112, #42 ) ;
#281 = DATE_TIME_ROLE ( 'classification_date' ) ;
#282 = VECTOR ( 'NONE', #160, 1000.000000000000000 ) ;
#283 = EDGE_CURVE ( 'NONE', #217, #287, #275, .T. ) ;
#284 = ORIENTED_EDGE ( 'NONE', *, *, #274, .F. ) ;
#285 = DIRECTION ( 'NONE',  ( -0.000000000000000000, -0.000000000000000000, -1.000000000000000000 ) ) ;
#286 = VERTEX_POINT ( 'NONE', #228 ) ;
#287 = VERTEX_POINT ( 'NONE', #161 ) ;
#288 = EDGE_CURVE ( 'NONE', #286, #261, #23, .T. ) ;
#289 = CARTESIAN_POINT ( 'NONE',  ( 0.000000000000000000, 0.000000000000000000, 3.199999999999980638 ) ) ;
#290 = DIRECTION ( 'NONE',  ( 1.000000000000000000, 0.000000000000000000, 0.000000000000000000 ) ) ;
#291 = CARTESIAN_POINT ( 'NONE',  ( -2.600000000000000089, 0.000000000000000000, 318.0000000000000000 ) ) ;
#292 = VECTOR ( 'NONE', #196, 1000.000000000000000 ) ;
#293 = DIRECTION ( 'NONE',  ( 1.000000000000000000, 0.000000000000000000, -0.000000000000000000 ) ) ;
#294 = CARTESIAN_POINT ( 'NONE',  ( 0.000000000000000000, 0.000000000000000000, 318.0000000000000000 ) ) ;
#295 = EDGE_CURVE ( 'NONE', #20, #286, #202, .T. ) ;
#296 = FACE_OUTER_BOUND ( 'NONE', #255, .T. ) ;
#297 = AXIS2_PLACEMENT_3D ( 'NONE', #35, #54, #222 ) ;
#298 = DATE_TIME_ROLE ( 'creation_date' ) ;
#299 = APPROVAL_DATE_TIME ( #16, #77 ) ;
#300 = EDGE_LOOP ( 'NONE', ( #119, #99, #121, #86 ) ) ;
#301 = VECTOR ( 'NONE', #85, 1000.000000000000000 ) ;
#302 = PERSON_AND_ORGANIZATION ( #112, #42 ) ;
#303 = ORIENTED_EDGE ( 'NONE', *, *, #107, .F. ) ;
#304 = APPROVAL_DATE_TIME ( #253, #117 ) ;
#305 = EDGE_LOOP ( 'NONE', ( #174, #303, #45, #91 ) ) ;
#306 = CIRCLE ( 'NONE', #5, 2.799999999999999822 ) ;
#307 = EDGE_LOOP ( 'NONE', ( #215, #27 ) ) ;
ENDSEC;
END-ISO-10303-21;
