ISO-10303-21;
HEADER;
FILE_DESCRIPTION (( 'STEP AP203' ),
    '1' );
FILE_NAME ('bb7f.STEP',
    '2022-07-07T12:22:42',
    ( '' ),
    ( '' ),
    'SwSTEP 2.0',
    'SolidWorks 2019',
    '' );
FILE_SCHEMA (( 'CONFIG_CONTROL_DESIGN' ));
ENDSEC;

DATA;
#1 = EDGE_LOOP ( 'NONE', ( #57, #131 ) ) ;
#2 = APPROVAL_PERSON_ORGANIZATION ( #189, #274, #262 ) ;
#3 = PRODUCT_RELATED_PRODUCT_CATEGORY ( 'detail', '', ( #7 ) ) ;
#4 = PERSON_AND_ORGANIZATION ( #255, #65 ) ;
#5 = EDGE_LOOP ( 'NONE', ( #265, #291, #267, #271 ) ) ;
#6 = ORIENTED_EDGE ( 'NONE', *, *, #155, .F. ) ;
#7 = PRODUCT ( 'bb7f', 'bb7f', '', ( #72 ) ) ;
#8 = CARTESIAN_POINT ( 'NONE',  ( -7.000000000000000000, 0.000000000000000000, 132.0000000000000000 ) ) ;
#9 = LOCAL_TIME ( 14, 22, 42.00000000000000000, #100 ) ;
#10 = DIRECTION ( 'NONE',  ( 0.000000000000000000, 0.000000000000000000, 1.000000000000000000 ) ) ;
#11 = ORIENTED_EDGE ( 'NONE', *, *, #85, .F. ) ;
#12 = CARTESIAN_POINT ( 'NONE',  ( 0.000000000000000000, 0.000000000000000000, 0.000000000000000000 ) ) ;
#13 = CC_DESIGN_PERSON_AND_ORGANIZATION_ASSIGNMENT ( #95, #146, ( #7 ) ) ;
#14 = LOCAL_TIME ( 14, 22, 42.00000000000000000, #166 ) ;
#15 = DIRECTION ( 'NONE',  ( 1.000000000000000000, 0.000000000000000000, -0.000000000000000000 ) ) ;
#16 = DIRECTION ( 'NONE',  ( 1.000000000000000000, 0.000000000000000000, 0.000000000000000000 ) ) ;
#17 = AXIS2_PLACEMENT_3D ( 'NONE', #21, #60, #278 ) ;
#18 = PLANE ( 'NONE',  #157 ) ;
#19 = CIRCLE ( 'NONE', #92, 7.000000000000000000 ) ;
#20 = CC_DESIGN_PERSON_AND_ORGANIZATION_ASSIGNMENT ( #231, #217, ( #204 ) ) ;
#21 = CARTESIAN_POINT ( 'NONE',  ( 0.000000000000000000, 0.000000000000000000, 7.000000000000000000 ) ) ;
#22 = CYLINDRICAL_SURFACE ( 'NONE', #109, 7.000000000000000000 ) ;
#23 = DATE_TIME_ROLE ( 'classification_date' ) ;
#24 = APPROVAL_ROLE ( '' ) ;
#25 = EDGE_CURVE ( 'NONE', #198, #103, #99, .T. ) ;
#26 = LOCAL_TIME ( 14, 22, 42.00000000000000000, #123 ) ;
#27 = APPLICATION_PROTOCOL_DEFINITION ( 'international standard', 'config_control_design', 1994, #135 ) ;
#28 = FACE_OUTER_BOUND ( 'NONE', #5, .T. ) ;
#29 = APPROVAL_STATUS ( 'not_yet_approved' ) ;
#30 = SHAPE_DEFINITION_REPRESENTATION ( #171, #58 ) ;
#31 = CARTESIAN_POINT ( 'NONE',  ( 0.000000000000000000, 0.000000000000000000, 7.000000000000000000 ) ) ;
#32 = APPROVAL_DATE_TIME ( #264, #101 ) ;
#33 = EDGE_LOOP ( 'NONE', ( #192, #176, #154, #246 ) ) ;
#34 = EDGE_CURVE ( 'NONE', #289, #121, #273, .T. ) ;
#35 = FACE_OUTER_BOUND ( 'NONE', #105, .T. ) ;
#36 = ORIENTED_EDGE ( 'NONE', *, *, #241, .F. ) ;
#37 = APPROVAL ( #126, 'NEURÈENÝ' ) ;
#38 = FACE_OUTER_BOUND ( 'NONE', #33, .T. ) ;
#39 = FACE_BOUND ( 'NONE', #1, .T. ) ;
#40 = DIRECTION ( 'NONE',  ( 1.000000000000000000, 0.000000000000000000, 0.000000000000000000 ) ) ;
#41 = APPLICATION_CONTEXT ( 'configuration controlled 3d designs of mechanical parts and assemblies' ) ;
#42 = CARTESIAN_POINT ( 'NONE',  ( 0.000000000000000000, 0.000000000000000000, 132.0000000000000000 ) ) ;
#43 = EDGE_CURVE ( 'NONE', #269, #198, #218, .T. ) ;
#44 = DIRECTION ( 'NONE',  ( 1.000000000000000000, 0.000000000000000000, 0.000000000000000000 ) ) ;
#45 = AXIS2_PLACEMENT_3D ( 'NONE', #301, #161, #138 ) ;
#46 = CARTESIAN_POINT ( 'NONE',  ( 0.000000000000000000, 0.000000000000000000, 132.0000000000000000 ) ) ;
#47 = APPROVAL_DATE_TIME ( #48, #274 ) ;
#48 = DATE_AND_TIME ( #117, #14 ) ;
#49 = PERSON_AND_ORGANIZATION ( #255, #65 ) ;
#50 = PERSON_AND_ORGANIZATION ( #255, #65 ) ;
#51 = APPROVAL_PERSON_ORGANIZATION ( #253, #37, #288 ) ;
#52 = VERTEX_POINT ( 'NONE', #199 ) ;
#53 = ORIENTED_EDGE ( 'NONE', *, *, #151, .T. ) ;
#54 = DIRECTION ( 'NONE',  ( 1.000000000000000000, 0.000000000000000000, 0.000000000000000000 ) ) ;
#55 = ORIENTED_EDGE ( 'NONE', *, *, #43, .T. ) ;
#56 = PRODUCT_DEFINITION_FORMATION_WITH_SPECIFIED_SOURCE ( 'LIBOVOLNÝ', '', #7, .NOT_KNOWN. ) ;
#57 = ORIENTED_EDGE ( 'NONE', *, *, #155, .T. ) ;
#58 = ADVANCED_BREP_SHAPE_REPRESENTATION ( 'bb7f', ( #141, #172 ), #279 ) ;
#59 = DIRECTION ( 'NONE',  ( -0.000000000000000000, -0.000000000000000000, -1.000000000000000000 ) ) ;
#60 = DIRECTION ( 'NONE',  ( 0.000000000000000000, 0.000000000000000000, 1.000000000000000000 ) ) ;
#61 = VECTOR ( 'NONE', #205, 1000.000000000000000 ) ;
#62 = FACE_OUTER_BOUND ( 'NONE', #243, .T. ) ;
#63 = CYLINDRICAL_SURFACE ( 'NONE', #70, 7.000000000000000000 ) ;
#64 = CARTESIAN_POINT ( 'NONE',  ( 0.000000000000000000, 0.000000000000000000, 7.000000000000000000 ) ) ;
#65 = ORGANIZATION ( 'NEURÈENÝ', 'NEURÈENÝ', '' ) ;
#66 = AXIS2_PLACEMENT_3D ( 'NONE', #181, #111, #281 ) ;
#67 = ADVANCED_FACE ( 'NONE', ( #38 ), #132, .T. ) ;
#68 = LINE ( 'NONE', #164, #61 ) ;
#69 = CARTESIAN_POINT ( 'NONE',  ( 11.00000000000000000, 1.347111479062088405E-15, 0.000000000000000000 ) ) ;
#70 = AXIS2_PLACEMENT_3D ( 'NONE', #136, #162, #86 ) ;
#71 = CC_DESIGN_APPROVAL ( #274, ( #130 ) ) ;
#72 = MECHANICAL_CONTEXT ( 'NONE', #135, 'mechanical' ) ;
#73 = CC_DESIGN_DATE_AND_TIME_ASSIGNMENT ( #122, #147, ( #130 ) ) ;
#74 = APPROVAL_STATUS ( 'not_yet_approved' ) ;
#75 = ORIENTED_EDGE ( 'NONE', *, *, #169, .T. ) ;
#76 = APPLICATION_PROTOCOL_DEFINITION ( 'international standard', 'config_control_design', 1994, #41 ) ;
#77 = ADVANCED_FACE ( 'NONE', ( #35 ), #129, .T. ) ;
#78 = ORIENTED_EDGE ( 'NONE', *, *, #106, .F. ) ;
#79 = ORIENTED_EDGE ( 'NONE', *, *, #202, .F. ) ;
#80 = ORIENTED_EDGE ( 'NONE', *, *, #144, .F. ) ;
#81 = ADVANCED_FACE ( 'NONE', ( #39, #216 ), #102, .T. ) ;
#82 = ORIENTED_EDGE ( 'NONE', *, *, #195, .T. ) ;
#83 = DIRECTION ( 'NONE',  ( -1.000000000000000000, 0.000000000000000000, 0.000000000000000000 ) ) ;
#84 = DIRECTION ( 'NONE',  ( 0.000000000000000000, 0.000000000000000000, 1.000000000000000000 ) ) ;
#85 = EDGE_CURVE ( 'NONE', #269, #52, #277, .T. ) ;
#86 = DIRECTION ( 'NONE',  ( -1.000000000000000000, 0.000000000000000000, 0.000000000000000000 ) ) ;
#87 = CIRCLE ( 'NONE', #299, 7.200000000000000178 ) ;
#88 = CARTESIAN_POINT ( 'NONE',  ( -11.00000000000000000, 0.000000000000000000, 0.000000000000000000 ) ) ;
#89 = CARTESIAN_POINT ( 'NONE',  ( -7.200000000000000178, 8.817456953860942303E-16, 6.999999999999999112 ) ) ;
#90 = EDGE_CURVE ( 'NONE', #121, #289, #165, .T. ) ;
#91 = CARTESIAN_POINT ( 'NONE',  ( 0.000000000000000000, 0.000000000000000000, 0.000000000000000000 ) ) ;
#92 = AXIS2_PLACEMENT_3D ( 'NONE', #225, #180, #44 ) ;
#93 = CALENDAR_DATE ( 2022, 7, 7 ) ;
#94 = AXIS2_PLACEMENT_3D ( 'NONE', #257, #249, #159 ) ;
#95 = PERSON_AND_ORGANIZATION ( #255, #65 ) ;
#96 = ADVANCED_FACE ( 'NONE', ( #203 ), #22, .T. ) ;
#97 =( NAMED_UNIT ( * ) PLANE_ANGLE_UNIT ( ) SI_UNIT ( $, .RADIAN. ) );
#98 = EDGE_LOOP ( 'NONE', ( #79, #78, #107, #174 ) ) ;
#99 = CIRCLE ( 'NONE', #139, 0.1999999999999996503 ) ;
#100 = COORDINATED_UNIVERSAL_TIME_OFFSET ( 1, 0, .AHEAD. ) ;
#101 = APPROVAL ( #29, 'NEURÈENÝ' ) ;
#102 = PLANE ( 'NONE',  #183 ) ;
#103 = VERTEX_POINT ( 'NONE', #89 ) ;
#104 = ORIENTED_EDGE ( 'NONE', *, *, #226, .F. ) ;
#105 = EDGE_LOOP ( 'NONE', ( #263, #173 ) ) ;
#106 = EDGE_CURVE ( 'NONE', #244, #194, #242, .T. ) ;
#107 = ORIENTED_EDGE ( 'NONE', *, *, #283, .T. ) ;
#108 = CARTESIAN_POINT ( 'NONE',  ( 0.000000000000000000, 0.000000000000000000, 7.000000000000000000 ) ) ;
#109 = AXIS2_PLACEMENT_3D ( 'NONE', #46, #224, #297 ) ;
#110 = DIRECTION ( 'NONE',  ( -0.000000000000000000, -0.000000000000000000, -1.000000000000000000 ) ) ;
#111 = DIRECTION ( 'NONE',  ( 0.000000000000000000, -1.000000000000000000, 0.000000000000000000 ) ) ;
#112 = CIRCLE ( 'NONE', #152, 7.200000000000000178 ) ;
#113 = VECTOR ( 'NONE', #188, 1000.000000000000000 ) ;
#114 = CARTESIAN_POINT ( 'NONE',  ( 11.00000000000000000, 1.347111479062088405E-15, 7.000000000000000000 ) ) ;
#115 = CC_DESIGN_DATE_AND_TIME_ASSIGNMENT ( #142, #23, ( #204 ) ) ;
#116 = DIRECTION ( 'NONE',  ( -0.000000000000000000, -0.000000000000000000, -1.000000000000000000 ) ) ;
#117 = CALENDAR_DATE ( 2022, 7, 7 ) ;
#118 = VECTOR ( 'NONE', #303, 1000.000000000000000 ) ;
#119 = APPROVAL_PERSON_ORGANIZATION ( #4, #101, #24 ) ;
#120 = CARTESIAN_POINT ( 'NONE',  ( 0.000000000000000000, 0.000000000000000000, 0.000000000000000000 ) ) ;
#121 = VERTEX_POINT ( 'NONE', #88 ) ;
#122 = DATE_AND_TIME ( #145, #208 ) ;
#123 = COORDINATED_UNIVERSAL_TIME_OFFSET ( 1, 0, .AHEAD. ) ;
#124 = CARTESIAN_POINT ( 'NONE',  ( 0.000000000000000000, 0.000000000000000000, 7.199999999999998401 ) ) ;
#125 = PERSON_AND_ORGANIZATION ( #255, #65 ) ;
#126 = APPROVAL_STATUS ( 'not_yet_approved' ) ;
#127 = DIRECTION ( 'NONE',  ( 1.224646799147353207E-16, 1.000000000000000000, -0.000000000000000000 ) ) ;
#128 = AXIS2_PLACEMENT_3D ( 'NONE', #124, #232, #307 ) ;
#129 = PLANE ( 'NONE',  #250 ) ;
#130 = PRODUCT_DEFINITION ( 'NEZNÁMÝ', '', #56, #296 ) ;
#131 = ORIENTED_EDGE ( 'NONE', *, *, #236, .T. ) ;
#132 = CYLINDRICAL_SURFACE ( 'NONE', #160, 11.00000000000000000 ) ;
#133 = FACE_OUTER_BOUND ( 'NONE', #268, .T. ) ;
#134 = DIRECTION ( 'NONE',  ( 1.000000000000000000, 0.000000000000000000, 0.000000000000000000 ) ) ;
#135 = APPLICATION_CONTEXT ( 'configuration controlled 3d designs of mechanical parts and assemblies' ) ;
#136 = CARTESIAN_POINT ( 'NONE',  ( 0.000000000000000000, 0.000000000000000000, 132.0000000000000000 ) ) ;
#137 = CARTESIAN_POINT ( 'NONE',  ( 0.000000000000000000, 0.000000000000000000, 7.199999999999998401 ) ) ;
#138 = DIRECTION ( 'NONE',  ( 1.000000000000000000, 0.000000000000000000, 0.000000000000000000 ) ) ;
#139 = AXIS2_PLACEMENT_3D ( 'NONE', #222, #127, #294 ) ;
#140 = DIRECTION ( 'NONE',  ( -1.000000000000000000, 0.000000000000000000, 0.000000000000000000 ) ) ;
#141 = MANIFOLD_SOLID_BREP ( 'Zaoblit1', #230 ) ;
#142 = DATE_AND_TIME ( #256, #9 ) ;
#143 =( LENGTH_UNIT ( ) NAMED_UNIT ( * ) SI_UNIT ( .MILLI., .METRE. ) );
#144 = EDGE_CURVE ( 'NONE', #52, #269, #238, .T. ) ;
#145 = CALENDAR_DATE ( 2022, 7, 7 ) ;
#146 = PERSON_AND_ORGANIZATION_ROLE ( 'design_owner' ) ;
#147 = DATE_TIME_ROLE ( 'creation_date' ) ;
#148 = CALENDAR_DATE ( 2022, 7, 7 ) ;
#149 = ORIENTED_EDGE ( 'NONE', *, *, #106, .T. ) ;
#150 = DIRECTION ( 'NONE',  ( -0.000000000000000000, -0.000000000000000000, -1.000000000000000000 ) ) ;
#151 = EDGE_CURVE ( 'NONE', #198, #295, #19, .T. ) ;
#152 = AXIS2_PLACEMENT_3D ( 'NONE', #108, #110, #201 ) ;
#153 = VERTEX_POINT ( 'NONE', #184 ) ;
#154 = ORIENTED_EDGE ( 'NONE', *, *, #34, .T. ) ;
#155 = EDGE_CURVE ( 'NONE', #153, #103, #87, .T. ) ;
#156 = ORIENTED_EDGE ( 'NONE', *, *, #90, .F. ) ;
#157 = AXIS2_PLACEMENT_3D ( 'NONE', #91, #185, #280 ) ;
#158 = DIRECTION ( 'NONE',  ( 1.000000000000000000, 0.000000000000000000, 0.000000000000000000 ) ) ;
#159 = DIRECTION ( 'NONE',  ( 1.000000000000000000, 0.000000000000000000, 0.000000000000000000 ) ) ;
#160 = AXIS2_PLACEMENT_3D ( 'NONE', #197, #150, #83 ) ;
#161 = DIRECTION ( 'NONE',  ( 0.000000000000000000, 0.000000000000000000, 1.000000000000000000 ) ) ;
#162 = DIRECTION ( 'NONE',  ( -0.000000000000000000, -0.000000000000000000, -1.000000000000000000 ) ) ;
#163 = TOROIDAL_SURFACE ( 'NONE', #128, 7.200000000000000178, 0.2000000000000000111 ) ;
#164 = CARTESIAN_POINT ( 'NONE',  ( 7.000000000000000000, 8.572527594031473190E-16, 132.0000000000000000 ) ) ;
#165 = CIRCLE ( 'NONE', #94, 11.00000000000000000 ) ;
#166 = COORDINATED_UNIVERSAL_TIME_OFFSET ( 1, 0, .AHEAD. ) ;
#167 = AXIS2_PLACEMENT_3D ( 'NONE', #64, #275, #134 ) ;
#168 = AXIS2_PLACEMENT_3D ( 'NONE', #31, #261, #140 ) ;
#169 = EDGE_CURVE ( 'NONE', #194, #244, #286, .T. ) ;
#170 = ORIENTED_EDGE ( 'NONE', *, *, #43, .F. ) ;
#171 = PRODUCT_DEFINITION_SHAPE ( 'NONE', 'NONE',  #130 ) ;
#172 = AXIS2_PLACEMENT_3D ( 'NONE', #120, #282, #304 ) ;
#173 = ORIENTED_EDGE ( 'NONE', *, *, #144, .T. ) ;
#174 = ORIENTED_EDGE ( 'NONE', *, *, #90, .T. ) ;
#175 = LOCAL_TIME ( 14, 22, 42.00000000000000000, #206 ) ;
#176 = ORIENTED_EDGE ( 'NONE', *, *, #202, .T. ) ;
#177 = ADVANCED_FACE ( 'NONE', ( #254 ), #290, .F. ) ;
#178 = CARTESIAN_POINT ( 'NONE',  ( 0.000000000000000000, 0.000000000000000000, 132.0000000000000000 ) ) ;
#179 = AXIS2_PLACEMENT_3D ( 'NONE', #12, #10, #54 ) ;
#180 = DIRECTION ( 'NONE',  ( 0.000000000000000000, 0.000000000000000000, 1.000000000000000000 ) ) ;
#181 = CARTESIAN_POINT ( 'NONE',  ( 7.200000000000000178, 0.000000000000000000, 7.199999999999998401 ) ) ;
#182 = ADVANCED_FACE ( 'NONE', ( #62 ), #63, .T. ) ;
#183 = AXIS2_PLACEMENT_3D ( 'NONE', #252, #298, #15 ) ;
#184 = CARTESIAN_POINT ( 'NONE',  ( 7.200000000000000178, 0.000000000000000000, 6.999999999999999112 ) ) ;
#185 = DIRECTION ( 'NONE',  ( 0.000000000000000000, 0.000000000000000000, 1.000000000000000000 ) ) ;
#186 = CC_DESIGN_APPROVAL ( #101, ( #56 ) ) ;
#187 = VECTOR ( 'NONE', #59, 1000.000000000000000 ) ;
#188 = DIRECTION ( 'NONE',  ( -0.000000000000000000, -0.000000000000000000, -1.000000000000000000 ) ) ;
#189 = PERSON_AND_ORGANIZATION ( #255, #65 ) ;
#190 = CIRCLE ( 'NONE', #66, 0.1999999999999996503 ) ;
#191 = CARTESIAN_POINT ( 'NONE',  ( -11.00000000000000000, 0.000000000000000000, 7.000000000000000000 ) ) ;
#192 = ORIENTED_EDGE ( 'NONE', *, *, #169, .F. ) ;
#193 = FACE_OUTER_BOUND ( 'NONE', #98, .T. ) ;
#194 = VERTEX_POINT ( 'NONE', #114 ) ;
#195 = EDGE_CURVE ( 'NONE', #295, #198, #212, .T. ) ;
#196 = EDGE_LOOP ( 'NONE', ( #104, #11, #55, #53 ) ) ;
#197 = CARTESIAN_POINT ( 'NONE',  ( 0.000000000000000000, 0.000000000000000000, 7.000000000000000000 ) ) ;
#198 = VERTEX_POINT ( 'NONE', #228 ) ;
#199 = CARTESIAN_POINT ( 'NONE',  ( 7.000000000000000000, 8.572527594031473190E-16, 132.0000000000000000 ) ) ;
#200 = DIRECTION ( 'NONE',  ( 0.000000000000000000, 0.000000000000000000, 1.000000000000000000 ) ) ;
#201 = DIRECTION ( 'NONE',  ( 1.000000000000000000, 0.000000000000000000, 0.000000000000000000 ) ) ;
#202 = EDGE_CURVE ( 'NONE', #194, #289, #227, .T. ) ;
#203 = FACE_OUTER_BOUND ( 'NONE', #196, .T. ) ;
#204 = SECURITY_CLASSIFICATION ( '', '', #239 ) ;
#205 = DIRECTION ( 'NONE',  ( -0.000000000000000000, -0.000000000000000000, -1.000000000000000000 ) ) ;
#206 = COORDINATED_UNIVERSAL_TIME_OFFSET ( 1, 0, .AHEAD. ) ;
#207 = CARTESIAN_POINT ( 'NONE',  ( 11.00000000000000000, 1.347111479062088405E-15, 7.000000000000000000 ) ) ;
#208 = LOCAL_TIME ( 14, 22, 42.00000000000000000, #237 ) ;
#209 = CYLINDRICAL_SURFACE ( 'NONE', #168, 11.00000000000000000 ) ;
#210 = CARTESIAN_POINT ( 'NONE',  ( -7.000000000000000000, 0.000000000000000000, 132.0000000000000000 ) ) ;
#211 = CARTESIAN_POINT ( 'NONE',  ( -11.00000000000000000, 0.000000000000000000, 7.000000000000000000 ) ) ;
#212 = CIRCLE ( 'NONE', #45, 7.000000000000000000 ) ;
#213 = PERSON_AND_ORGANIZATION_ROLE ( 'design_supplier' ) ;
#214 = DATE_AND_TIME ( #93, #175 ) ;
#215 = AXIS2_PLACEMENT_3D ( 'NONE', #248, #200, #229 ) ;
#216 = FACE_OUTER_BOUND ( 'NONE', #292, .T. ) ;
#217 = PERSON_AND_ORGANIZATION_ROLE ( 'classification_officer' ) ;
#218 = LINE ( 'NONE', #8, #187 ) ;
#219 = DIRECTION ( 'NONE',  ( 0.000000000000000000, 0.000000000000000000, 1.000000000000000000 ) ) ;
#220 = ADVANCED_FACE ( 'NONE', ( #133 ), #18, .F. ) ;
#221 = EDGE_LOOP ( 'NONE', ( #305, #247, #6, #36 ) ) ;
#222 = CARTESIAN_POINT ( 'NONE',  ( -7.200000000000000178, 8.817456953860942303E-16, 7.199999999999998401 ) ) ;
#223 = CC_DESIGN_APPROVAL ( #37, ( #204 ) ) ;
#224 = DIRECTION ( 'NONE',  ( -0.000000000000000000, -0.000000000000000000, -1.000000000000000000 ) ) ;
#225 = CARTESIAN_POINT ( 'NONE',  ( 0.000000000000000000, 0.000000000000000000, 7.199999999999998401 ) ) ;
#226 = EDGE_CURVE ( 'NONE', #52, #295, #68, .T. ) ;
#227 = LINE ( 'NONE', #207, #118 ) ;
#228 = CARTESIAN_POINT ( 'NONE',  ( -7.000000000000000000, 0.000000000000000000, 7.199999999999998401 ) ) ;
#229 = DIRECTION ( 'NONE',  ( 1.000000000000000000, 0.000000000000000000, 0.000000000000000000 ) ) ;
#230 = CLOSED_SHELL ( 'NONE', ( #177, #182, #67, #260, #81, #220, #96, #77, #293 ) ) ;
#231 = PERSON_AND_ORGANIZATION ( #255, #65 ) ;
#232 = DIRECTION ( 'NONE',  ( 0.000000000000000000, 0.000000000000000000, 1.000000000000000000 ) ) ;
#233 = APPROVAL_DATE_TIME ( #214, #37 ) ;
#234 = LINE ( 'NONE', #191, #113 ) ;
#235 = CARTESIAN_POINT ( 'NONE',  ( 7.000000000000000000, 8.572527594031473190E-16, 7.199999999999998401 ) ) ;
#236 = EDGE_CURVE ( 'NONE', #103, #153, #112, .T. ) ;
#237 = COORDINATED_UNIVERSAL_TIME_OFFSET ( 1, 0, .AHEAD. ) ;
#238 = CIRCLE ( 'NONE', #284, 7.000000000000000000 ) ;
#239 = SECURITY_CLASSIFICATION_LEVEL ( 'unclassified' ) ;
#240 = PERSON_AND_ORGANIZATION_ROLE ( 'creator' ) ;
#241 = EDGE_CURVE ( 'NONE', #295, #153, #190, .T. ) ;
#242 = CIRCLE ( 'NONE', #17, 11.00000000000000000 ) ;
#243 = EDGE_LOOP ( 'NONE', ( #80, #287, #82, #170 ) ) ;
#244 = VERTEX_POINT ( 'NONE', #211 ) ;
#245 = ORIENTED_EDGE ( 'NONE', *, *, #34, .F. ) ;
#246 = ORIENTED_EDGE ( 'NONE', *, *, #283, .F. ) ;
#247 = ORIENTED_EDGE ( 'NONE', *, *, #25, .T. ) ;
#248 = CARTESIAN_POINT ( 'NONE',  ( 0.000000000000000000, 0.000000000000000000, 132.0000000000000000 ) ) ;
#249 = DIRECTION ( 'NONE',  ( 0.000000000000000000, 0.000000000000000000, 1.000000000000000000 ) ) ;
#250 = AXIS2_PLACEMENT_3D ( 'NONE', #178, #219, #272 ) ;
#251 = UNCERTAINTY_MEASURE_WITH_UNIT (LENGTH_MEASURE( 1.000000000000000082E-05 ), #143, 'distance_accuracy_value', 'NONE');
#252 = CARTESIAN_POINT ( 'NONE',  ( 0.000000000000000000, 0.000000000000000000, 7.000000000000000000 ) ) ;
#253 = PERSON_AND_ORGANIZATION ( #255, #65 ) ;
#254 = FACE_OUTER_BOUND ( 'NONE', #221, .T. ) ;
#255 = PERSON ( 'NEURÈENÝ', 'NEURÈENÝ', 'NEURÈENÝ', ('NEURÈENÝ'), ('NEURÈENÝ'), ('NEURÈENÝ') ) ;
#256 = CALENDAR_DATE ( 2022, 7, 7 ) ;
#257 = CARTESIAN_POINT ( 'NONE',  ( 0.000000000000000000, 0.000000000000000000, 0.000000000000000000 ) ) ;
#258 =( NAMED_UNIT ( * ) SI_UNIT ( $, .STERADIAN. ) SOLID_ANGLE_UNIT ( ) );
#259 = CC_DESIGN_SECURITY_CLASSIFICATION ( #204, ( #56 ) ) ;
#260 = ADVANCED_FACE ( 'NONE', ( #193 ), #209, .T. ) ;
#261 = DIRECTION ( 'NONE',  ( -0.000000000000000000, -0.000000000000000000, -1.000000000000000000 ) ) ;
#262 = APPROVAL_ROLE ( '' ) ;
#263 = ORIENTED_EDGE ( 'NONE', *, *, #85, .T. ) ;
#264 = DATE_AND_TIME ( #148, #26 ) ;
#265 = ORIENTED_EDGE ( 'NONE', *, *, #25, .F. ) ;
#266 = AXIS2_PLACEMENT_3D ( 'NONE', #137, #276, #16 ) ;
#267 = ORIENTED_EDGE ( 'NONE', *, *, #241, .T. ) ;
#268 = EDGE_LOOP ( 'NONE', ( #156, #245 ) ) ;
#269 = VERTEX_POINT ( 'NONE', #210 ) ;
#270 = CC_DESIGN_PERSON_AND_ORGANIZATION_ASSIGNMENT ( #49, #285, ( #130 ) ) ;
#271 = ORIENTED_EDGE ( 'NONE', *, *, #236, .F. ) ;
#272 = DIRECTION ( 'NONE',  ( 1.000000000000000000, 0.000000000000000000, -0.000000000000000000 ) ) ;
#273 = CIRCLE ( 'NONE', #179, 11.00000000000000000 ) ;
#274 = APPROVAL ( #74, 'NEURÈENÝ' ) ;
#275 = DIRECTION ( 'NONE',  ( 0.000000000000000000, 0.000000000000000000, 1.000000000000000000 ) ) ;
#276 = DIRECTION ( 'NONE',  ( 0.000000000000000000, 0.000000000000000000, 1.000000000000000000 ) ) ;
#277 = CIRCLE ( 'NONE', #215, 7.000000000000000000 ) ;
#278 = DIRECTION ( 'NONE',  ( 1.000000000000000000, 0.000000000000000000, 0.000000000000000000 ) ) ;
#279 =( GEOMETRIC_REPRESENTATION_CONTEXT ( 3 ) GLOBAL_UNCERTAINTY_ASSIGNED_CONTEXT ( ( #251 ) ) GLOBAL_UNIT_ASSIGNED_CONTEXT ( ( #143, #97, #258 ) ) REPRESENTATION_CONTEXT ( 'NONE', 'WORKASPACE' ) );
#280 = DIRECTION ( 'NONE',  ( 1.000000000000000000, 0.000000000000000000, -0.000000000000000000 ) ) ;
#281 = DIRECTION ( 'NONE',  ( 0.000000000000000000, 0.000000000000000000, -1.000000000000000000 ) ) ;
#282 = DIRECTION ( 'NONE',  ( 0.000000000000000000, 0.000000000000000000, 1.000000000000000000 ) ) ;
#283 = EDGE_CURVE ( 'NONE', #244, #121, #234, .T. ) ;
#284 = AXIS2_PLACEMENT_3D ( 'NONE', #42, #84, #40 ) ;
#285 = PERSON_AND_ORGANIZATION_ROLE ( 'creator' ) ;
#286 = CIRCLE ( 'NONE', #167, 11.00000000000000000 ) ;
#287 = ORIENTED_EDGE ( 'NONE', *, *, #226, .T. ) ;
#288 = APPROVAL_ROLE ( '' ) ;
#289 = VERTEX_POINT ( 'NONE', #69 ) ;
#290 = TOROIDAL_SURFACE ( 'NONE', #266, 7.200000000000000178, 0.2000000000000000111 ) ;
#291 = ORIENTED_EDGE ( 'NONE', *, *, #195, .F. ) ;
#292 = EDGE_LOOP ( 'NONE', ( #149, #75 ) ) ;
#293 = ADVANCED_FACE ( 'NONE', ( #28 ), #163, .F. ) ;
#294 = DIRECTION ( 'NONE',  ( -1.000000000000000000, 1.224646799147358384E-16, 0.000000000000000000 ) ) ;
#295 = VERTEX_POINT ( 'NONE', #235 ) ;
#296 = DESIGN_CONTEXT ( 'detailed design', #41, 'design' ) ;
#297 = DIRECTION ( 'NONE',  ( -1.000000000000000000, 0.000000000000000000, 0.000000000000000000 ) ) ;
#298 = DIRECTION ( 'NONE',  ( 0.000000000000000000, 0.000000000000000000, 1.000000000000000000 ) ) ;
#299 = AXIS2_PLACEMENT_3D ( 'NONE', #300, #116, #158 ) ;
#300 = CARTESIAN_POINT ( 'NONE',  ( 0.000000000000000000, 0.000000000000000000, 7.000000000000000000 ) ) ;
#301 = CARTESIAN_POINT ( 'NONE',  ( 0.000000000000000000, 0.000000000000000000, 7.199999999999998401 ) ) ;
#302 = CC_DESIGN_PERSON_AND_ORGANIZATION_ASSIGNMENT ( #125, #213, ( #56 ) ) ;
#303 = DIRECTION ( 'NONE',  ( -0.000000000000000000, -0.000000000000000000, -1.000000000000000000 ) ) ;
#304 = DIRECTION ( 'NONE',  ( 1.000000000000000000, 0.000000000000000000, 0.000000000000000000 ) ) ;
#305 = ORIENTED_EDGE ( 'NONE', *, *, #151, .F. ) ;
#306 = CC_DESIGN_PERSON_AND_ORGANIZATION_ASSIGNMENT ( #50, #240, ( #56 ) ) ;
#307 = DIRECTION ( 'NONE',  ( 1.000000000000000000, 0.000000000000000000, 0.000000000000000000 ) ) ;
ENDSEC;
END-ISO-10303-21;
