ISO-10303-21;
HEADER;
FILE_DESCRIPTION (( 'STEP AP203' ),
    '1' );
FILE_NAME ('5bec.STEP',
    '2023-02-12T11:22:12',
    ( '' ),
    ( '' ),
    'SwSTEP 2.0',
    'SolidWorks 2019',
    '' );
FILE_SCHEMA (( 'CONFIG_CONTROL_DESIGN' ));
ENDSEC;

DATA;
#1 = APPROVAL_PERSON_ORGANIZATION ( #155, #156, #55 ) ;
#2 = DIRECTION ( 'NONE',  ( 1.000000000000000000, 0.000000000000000000, 0.000000000000000000 ) ) ;
#3 = DIRECTION ( 'NONE',  ( 1.000000000000000000, 0.000000000000000000, -0.000000000000000000 ) ) ;
#4 = DIRECTION ( 'NONE',  ( 1.000000000000000000, 0.000000000000000000, -0.000000000000000000 ) ) ;
#5 = DIRECTION ( 'NONE',  ( 0.000000000000000000, 0.000000000000000000, 1.000000000000000000 ) ) ;
#6 = PRODUCT_DEFINITION ( 'NEZNÁMÝ', '', #216, #226 ) ;
#7 = CC_DESIGN_APPROVAL ( #231, ( #216 ) ) ;
#8 = CC_DESIGN_DATE_AND_TIME_ASSIGNMENT ( #215, #212, ( #6 ) ) ;
#9 = VERTEX_POINT ( 'NONE', #192 ) ;
#10 = VERTEX_POINT ( 'NONE', #56 ) ;
#11 = LINE ( 'NONE', #89, #22 ) ;
#12 = CIRCLE ( 'NONE', #72, 3.750000000000000000 ) ;
#13 = PERSON_AND_ORGANIZATION ( #179, #75 ) ;
#14 = EDGE_CURVE ( 'NONE', #251, #105, #110, .T. ) ;
#15 = ORIENTED_EDGE ( 'NONE', *, *, #206, .F. ) ;
#16 = APPROVAL_DATE_TIME ( #194, #156 ) ;
#17 = VECTOR ( 'NONE', #176, 1000.000000000000000 ) ;
#18 = DIRECTION ( 'NONE',  ( -0.000000000000000000, -0.000000000000000000, -1.000000000000000000 ) ) ;
#19 = APPROVAL_STATUS ( 'not_yet_approved' ) ;
#20 = VERTEX_POINT ( 'NONE', #40 ) ;
#21 = CC_DESIGN_PERSON_AND_ORGANIZATION_ASSIGNMENT ( #169, #90, ( #6 ) ) ;
#22 = VECTOR ( 'NONE', #68, 1000.000000000000000 ) ;
#23 = AXIS2_PLACEMENT_3D ( 'NONE', #26, #204, #84 ) ;
#24 = ADVANCED_FACE ( 'NONE', ( #218 ), #114, .T. ) ;
#25 = DIRECTION ( 'NONE',  ( -0.000000000000000000, -0.000000000000000000, -1.000000000000000000 ) ) ;
#26 = CARTESIAN_POINT ( 'NONE',  ( 0.000000000000000000, 0.000000000000000000, 5.000000000000000000 ) ) ;
#27 = PRODUCT_RELATED_PRODUCT_CATEGORY ( 'detail', '', ( #160 ) ) ;
#28 = VERTEX_POINT ( 'NONE', #76 ) ;
#29 = EDGE_CURVE ( 'NONE', #105, #251, #129, .T. ) ;
#30 = EDGE_LOOP ( 'NONE', ( #189, #249, #149, #250 ) ) ;
#31 = PERSON_AND_ORGANIZATION ( #179, #75 ) ;
#32 = CC_DESIGN_APPROVAL ( #156, ( #106 ) ) ;
#33 = EDGE_LOOP ( 'NONE', ( #124, #104 ) ) ;
#34 = CALENDAR_DATE ( 2023, 12, 2 ) ;
#35 = CARTESIAN_POINT ( 'NONE',  ( -3.750000000000000000, 0.000000000000000000, 125.0000000000000000 ) ) ;
#36 = APPLICATION_PROTOCOL_DEFINITION ( 'international standard', 'config_control_design', 1994, #66 ) ;
#37 = DIRECTION ( 'NONE',  ( -1.000000000000000000, 0.000000000000000000, 0.000000000000000000 ) ) ;
#38 = APPROVAL_DATE_TIME ( #190, #231 ) ;
#39 = ADVANCED_FACE ( 'NONE', ( #112 ), #116, .T. ) ;
#40 = CARTESIAN_POINT ( 'NONE',  ( 3.750000000000000000, 4.592425496802573972E-16, 5.000000000000000000 ) ) ;
#41 = DIRECTION ( 'NONE',  ( 0.000000000000000000, 0.000000000000000000, 1.000000000000000000 ) ) ;
#42 = LOCAL_TIME ( 12, 22, 12.00000000000000000, #135 ) ;
#43 = DIRECTION ( 'NONE',  ( -0.000000000000000000, -0.000000000000000000, -1.000000000000000000 ) ) ;
#44 = DIRECTION ( 'NONE',  ( 1.000000000000000000, 0.000000000000000000, 0.000000000000000000 ) ) ;
#45 = FACE_OUTER_BOUND ( 'NONE', #50, .T. ) ;
#46 = EDGE_LOOP ( 'NONE', ( #209, #94, #87, #168 ) ) ;
#47 = AXIS2_PLACEMENT_3D ( 'NONE', #245, #43, #243 ) ;
#48 = EDGE_CURVE ( 'NONE', #28, #251, #11, .T. ) ;
#49 = AXIS2_PLACEMENT_3D ( 'NONE', #220, #78, #102 ) ;
#50 = EDGE_LOOP ( 'NONE', ( #130, #64 ) ) ;
#51 = AXIS2_PLACEMENT_3D ( 'NONE', #60, #81, #2 ) ;
#52 = CARTESIAN_POINT ( 'NONE',  ( 0.000000000000000000, 0.000000000000000000, 0.000000000000000000 ) ) ;
#53 = PERSON_AND_ORGANIZATION_ROLE ( 'design_owner' ) ;
#54 = EDGE_CURVE ( 'NONE', #9, #232, #211, .T. ) ;
#55 = APPROVAL_ROLE ( '' ) ;
#56 = CARTESIAN_POINT ( 'NONE',  ( 3.750000000000000000, 4.592425496802573972E-16, 125.0000000000000000 ) ) ;
#57 = DIRECTION ( 'NONE',  ( 1.000000000000000000, 0.000000000000000000, 0.000000000000000000 ) ) ;
#58 = AXIS2_PLACEMENT_3D ( 'NONE', #61, #141, #119 ) ;
#59 = AXIS2_PLACEMENT_3D ( 'NONE', #181, #221, #163 ) ;
#60 = CARTESIAN_POINT ( 'NONE',  ( 0.000000000000000000, 0.000000000000000000, 125.0000000000000000 ) ) ;
#61 = CARTESIAN_POINT ( 'NONE',  ( 0.000000000000000000, 0.000000000000000000, 5.000000000000000000 ) ) ;
#62 = CARTESIAN_POINT ( 'NONE',  ( 0.000000000000000000, 0.000000000000000000, 125.0000000000000000 ) ) ;
#63 = CARTESIAN_POINT ( 'NONE',  ( -3.750000000000000000, 0.000000000000000000, 5.000000000000000000 ) ) ;
#64 = ORIENTED_EDGE ( 'NONE', *, *, #101, .T. ) ;
#65 = DIRECTION ( 'NONE',  ( 0.000000000000000000, 0.000000000000000000, 1.000000000000000000 ) ) ;
#66 = APPLICATION_CONTEXT ( 'configuration controlled 3d designs of mechanical parts and assemblies' ) ;
#67 = CC_DESIGN_PERSON_AND_ORGANIZATION_ASSIGNMENT ( #31, #53, ( #160 ) ) ;
#68 = DIRECTION ( 'NONE',  ( -0.000000000000000000, -0.000000000000000000, -1.000000000000000000 ) ) ;
#69 = DATE_AND_TIME ( #198, #42 ) ;
#70 = ORIENTED_EDGE ( 'NONE', *, *, #14, .T. ) ;
#71 = DIRECTION ( 'NONE',  ( -0.000000000000000000, -0.000000000000000000, -1.000000000000000000 ) ) ;
#72 = AXIS2_PLACEMENT_3D ( 'NONE', #225, #182, #142 ) ;
#73 = APPLICATION_CONTEXT ( 'configuration controlled 3d designs of mechanical parts and assemblies' ) ;
#74 = PERSON_AND_ORGANIZATION_ROLE ( 'creator' ) ;
#75 = ORGANIZATION ( 'NEURÈENÝ', 'NEURÈENÝ', '' ) ;
#76 = CARTESIAN_POINT ( 'NONE',  ( -6.000000000000000888, 0.000000000000000000, 5.000000000000000000 ) ) ;
#77 = UNCERTAINTY_MEASURE_WITH_UNIT (LENGTH_MEASURE( 1.000000000000000082E-05 ), #241, 'distance_accuracy_value', 'NONE');
#78 = DIRECTION ( 'NONE',  ( 0.000000000000000000, 0.000000000000000000, 1.000000000000000000 ) ) ;
#79 = FACE_BOUND ( 'NONE', #128, .T. ) ;
#80 = CC_DESIGN_APPROVAL ( #88, ( #6 ) ) ;
#81 = DIRECTION ( 'NONE',  ( 0.000000000000000000, 0.000000000000000000, 1.000000000000000000 ) ) ;
#82 = ADVANCED_FACE ( 'NONE', ( #91 ), #236, .T. ) ;
#83 = DIRECTION ( 'NONE',  ( 1.000000000000000000, 0.000000000000000000, 0.000000000000000000 ) ) ;
#84 = DIRECTION ( 'NONE',  ( 1.000000000000000000, 0.000000000000000000, -0.000000000000000000 ) ) ;
#85 = ORIENTED_EDGE ( 'NONE', *, *, #97, .T. ) ;
#86 = EDGE_CURVE ( 'NONE', #20, #232, #12, .T. ) ;
#87 = ORIENTED_EDGE ( 'NONE', *, *, #54, .T. ) ;
#88 = APPROVAL ( #197, 'NEURÈENÝ' ) ;
#89 = CARTESIAN_POINT ( 'NONE',  ( -6.000000000000000888, 0.000000000000000000, 5.000000000000000000 ) ) ;
#90 = PERSON_AND_ORGANIZATION_ROLE ( 'creator' ) ;
#91 = FACE_OUTER_BOUND ( 'NONE', #166, .T. ) ;
#92 = DIRECTION ( 'NONE',  ( -0.000000000000000000, -0.000000000000000000, -1.000000000000000000 ) ) ;
#93 = APPROVAL_STATUS ( 'not_yet_approved' ) ;
#94 = ORIENTED_EDGE ( 'NONE', *, *, #203, .F. ) ;
#95 = PERSON_AND_ORGANIZATION_ROLE ( 'classification_officer' ) ;
#96 = CARTESIAN_POINT ( 'NONE',  ( 0.000000000000000000, 0.000000000000000000, 125.0000000000000000 ) ) ;
#97 = EDGE_CURVE ( 'NONE', #10, #9, #254, .T. ) ;
#98 = CARTESIAN_POINT ( 'NONE',  ( -6.000000000000000888, 0.000000000000000000, 0.000000000000000000 ) ) ;
#99 = AXIS2_PLACEMENT_3D ( 'NONE', #52, #109, #57 ) ;
#100 = DIRECTION ( 'NONE',  ( 0.000000000000000000, 0.000000000000000000, 1.000000000000000000 ) ) ;
#101 = EDGE_CURVE ( 'NONE', #233, #28, #170, .T. ) ;
#102 = DIRECTION ( 'NONE',  ( 1.000000000000000000, 0.000000000000000000, 0.000000000000000000 ) ) ;
#103 = PLANE ( 'NONE',  #188 ) ;
#104 = ORIENTED_EDGE ( 'NONE', *, *, #29, .F. ) ;
#105 = VERTEX_POINT ( 'NONE', #162 ) ;
#106 = SECURITY_CLASSIFICATION ( '', '', #210 ) ;
#107 = ORIENTED_EDGE ( 'NONE', *, *, #48, .F. ) ;
#108 = APPROVAL_DATE_TIME ( #69, #88 ) ;
#109 = DIRECTION ( 'NONE',  ( 0.000000000000000000, 0.000000000000000000, 1.000000000000000000 ) ) ;
#110 = CIRCLE ( 'NONE', #99, 6.000000000000000888 ) ;
#111 = COORDINATED_UNIVERSAL_TIME_OFFSET ( 1, 0, .AHEAD. ) ;
#112 = FACE_OUTER_BOUND ( 'NONE', #30, .T. ) ;
#113 = COORDINATED_UNIVERSAL_TIME_OFFSET ( 1, 0, .AHEAD. ) ;
#114 = CYLINDRICAL_SURFACE ( 'NONE', #185, 3.750000000000000000 ) ;
#115 = CC_DESIGN_PERSON_AND_ORGANIZATION_ASSIGNMENT ( #153, #154, ( #216 ) ) ;
#116 = CYLINDRICAL_SURFACE ( 'NONE', #237, 3.750000000000000000 ) ;
#117 = APPROVAL_PERSON_ORGANIZATION ( #172, #231, #150 ) ;
#118 = CARTESIAN_POINT ( 'NONE',  ( 0.000000000000000000, 0.000000000000000000, 0.000000000000000000 ) ) ;
#119 = DIRECTION ( 'NONE',  ( 1.000000000000000000, 0.000000000000000000, 0.000000000000000000 ) ) ;
#120 = CARTESIAN_POINT ( 'NONE',  ( 0.000000000000000000, 0.000000000000000000, 125.0000000000000000 ) ) ;
#121 = DIRECTION ( 'NONE',  ( 0.000000000000000000, 0.000000000000000000, 1.000000000000000000 ) ) ;
#122 = EDGE_CURVE ( 'NONE', #28, #233, #193, .T. ) ;
#123 = VECTOR ( 'NONE', #71, 1000.000000000000000 ) ;
#124 = ORIENTED_EDGE ( 'NONE', *, *, #14, .F. ) ;
#125 =( NAMED_UNIT ( * ) SI_UNIT ( $, .STERADIAN. ) SOLID_ANGLE_UNIT ( ) );
#126 = EDGE_CURVE ( 'NONE', #232, #20, #208, .T. ) ;
#127 = APPLICATION_PROTOCOL_DEFINITION ( 'international standard', 'config_control_design', 1994, #73 ) ;
#128 = EDGE_LOOP ( 'NONE', ( #134, #145 ) ) ;
#129 = CIRCLE ( 'NONE', #219, 6.000000000000000888 ) ;
#130 = ORIENTED_EDGE ( 'NONE', *, *, #122, .T. ) ;
#131 = APPROVAL_ROLE ( '' ) ;
#132 = DIRECTION ( 'NONE',  ( 1.000000000000000000, 0.000000000000000000, 0.000000000000000000 ) ) ;
#133 = COORDINATED_UNIVERSAL_TIME_OFFSET ( 1, 0, .AHEAD. ) ;
#134 = ORIENTED_EDGE ( 'NONE', *, *, #126, .F. ) ;
#135 = COORDINATED_UNIVERSAL_TIME_OFFSET ( 1, 0, .AHEAD. ) ;
#136 = COORDINATED_UNIVERSAL_TIME_OFFSET ( 1, 0, .AHEAD. ) ;
#137 = ORIENTED_EDGE ( 'NONE', *, *, #122, .F. ) ;
#138 =( NAMED_UNIT ( * ) PLANE_ANGLE_UNIT ( ) SI_UNIT ( $, .RADIAN. ) );
#139 = AXIS2_PLACEMENT_3D ( 'NONE', #140, #100, #44 ) ;
#140 = CARTESIAN_POINT ( 'NONE',  ( 0.000000000000000000, 0.000000000000000000, 5.000000000000000000 ) ) ;
#141 = DIRECTION ( 'NONE',  ( 0.000000000000000000, 0.000000000000000000, 1.000000000000000000 ) ) ;
#142 = DIRECTION ( 'NONE',  ( 1.000000000000000000, 0.000000000000000000, 0.000000000000000000 ) ) ;
#143 = CC_DESIGN_SECURITY_CLASSIFICATION ( #106, ( #216 ) ) ;
#144 = CARTESIAN_POINT ( 'NONE',  ( 3.750000000000000000, 4.592425496802573972E-16, 125.0000000000000000 ) ) ;
#145 = ORIENTED_EDGE ( 'NONE', *, *, #86, .F. ) ;
#146 = ADVANCED_FACE ( 'NONE', ( #244 ), #183, .F. ) ;
#147 = ORIENTED_EDGE ( 'NONE', *, *, #29, .T. ) ;
#148 = DIRECTION ( 'NONE',  ( 1.000000000000000000, 0.000000000000000000, 0.000000000000000000 ) ) ;
#149 = ORIENTED_EDGE ( 'NONE', *, *, #86, .T. ) ;
#150 = APPROVAL_ROLE ( '' ) ;
#151 = CARTESIAN_POINT ( 'NONE',  ( 0.000000000000000000, 0.000000000000000000, 125.0000000000000000 ) ) ;
#152 = LOCAL_TIME ( 12, 22, 12.00000000000000000, #111 ) ;
#153 = PERSON_AND_ORGANIZATION ( #179, #75 ) ;
#154 = PERSON_AND_ORGANIZATION_ROLE ( 'design_supplier' ) ;
#155 = PERSON_AND_ORGANIZATION ( #179, #75 ) ;
#156 = APPROVAL ( #93, 'NEURÈENÝ' ) ;
#157 = CARTESIAN_POINT ( 'NONE',  ( 0.000000000000000000, 0.000000000000000000, 0.000000000000000000 ) ) ;
#158 = CYLINDRICAL_SURFACE ( 'NONE', #59, 6.000000000000000888 ) ;
#159 = PLANE ( 'NONE',  #23 ) ;
#160 = PRODUCT ( '5bec', '5bec', '', ( #230 ) ) ;
#161 =( GEOMETRIC_REPRESENTATION_CONTEXT ( 3 ) GLOBAL_UNCERTAINTY_ASSIGNED_CONTEXT ( ( #77 ) ) GLOBAL_UNIT_ASSIGNED_CONTEXT ( ( #241, #138, #125 ) ) REPRESENTATION_CONTEXT ( 'NONE', 'WORKASPACE' ) );
#162 = CARTESIAN_POINT ( 'NONE',  ( 6.000000000000000888, 7.347880794884120722E-16, 0.000000000000000000 ) ) ;
#163 = DIRECTION ( 'NONE',  ( -1.000000000000000000, 0.000000000000000000, 0.000000000000000000 ) ) ;
#164 = LINE ( 'NONE', #144, #17 ) ;
#165 = AXIS2_PLACEMENT_3D ( 'NONE', #62, #199, #83 ) ;
#166 = EDGE_LOOP ( 'NONE', ( #227, #255, #147, #107 ) ) ;
#167 = LOCAL_TIME ( 12, 22, 12.00000000000000000, #113 ) ;
#168 = ORIENTED_EDGE ( 'NONE', *, *, #126, .T. ) ;
#169 = PERSON_AND_ORGANIZATION ( #179, #75 ) ;
#170 = CIRCLE ( 'NONE', #58, 6.000000000000000888 ) ;
#171 = CALENDAR_DATE ( 2023, 12, 2 ) ;
#172 = PERSON_AND_ORGANIZATION ( #179, #75 ) ;
#173 = CC_DESIGN_PERSON_AND_ORGANIZATION_ASSIGNMENT ( #235, #95, ( #106 ) ) ;
#174 = CALENDAR_DATE ( 2023, 12, 2 ) ;
#175 = SHAPE_DEFINITION_REPRESENTATION ( #177, #214 ) ;
#176 = DIRECTION ( 'NONE',  ( -0.000000000000000000, -0.000000000000000000, -1.000000000000000000 ) ) ;
#177 = PRODUCT_DEFINITION_SHAPE ( 'NONE', 'NONE',  #6 ) ;
#178 = CARTESIAN_POINT ( 'NONE',  ( 6.000000000000000888, 7.347880794884120722E-16, 5.000000000000000000 ) ) ;
#179 = PERSON ( 'NEURÈENÝ', 'NEURÈENÝ', 'NEURÈENÝ', ('NEURÈENÝ'), ('NEURÈENÝ'), ('NEURÈENÝ') ) ;
#180 = ADVANCED_FACE ( 'NONE', ( #200 ), #158, .T. ) ;
#181 = CARTESIAN_POINT ( 'NONE',  ( 0.000000000000000000, 0.000000000000000000, 5.000000000000000000 ) ) ;
#182 = DIRECTION ( 'NONE',  ( 0.000000000000000000, 0.000000000000000000, 1.000000000000000000 ) ) ;
#183 = PLANE ( 'NONE',  #195 ) ;
#184 = MANIFOLD_SOLID_BREP ( 'Pøidat vysunutím3', #228 ) ;
#185 = AXIS2_PLACEMENT_3D ( 'NONE', #96, #92, #37 ) ;
#186 = LOCAL_TIME ( 12, 22, 12.00000000000000000, #136 ) ;
#187 = ORIENTED_EDGE ( 'NONE', *, *, #203, .T. ) ;
#188 = AXIS2_PLACEMENT_3D ( 'NONE', #120, #121, #3 ) ;
#189 = ORIENTED_EDGE ( 'NONE', *, *, #97, .F. ) ;
#190 = DATE_AND_TIME ( #174, #167 ) ;
#191 = DATE_AND_TIME ( #34, #152 ) ;
#192 = CARTESIAN_POINT ( 'NONE',  ( -3.750000000000000000, 0.000000000000000000, 125.0000000000000000 ) ) ;
#193 = CIRCLE ( 'NONE', #139, 6.000000000000000888 ) ;
#194 = DATE_AND_TIME ( #217, #186 ) ;
#195 = AXIS2_PLACEMENT_3D ( 'NONE', #118, #5, #4 ) ;
#196 = ADVANCED_FACE ( 'NONE', ( #201 ), #103, .T. ) ;
#197 = APPROVAL_STATUS ( 'not_yet_approved' ) ;
#198 = CALENDAR_DATE ( 2023, 12, 2 ) ;
#199 = DIRECTION ( 'NONE',  ( 0.000000000000000000, 0.000000000000000000, 1.000000000000000000 ) ) ;
#200 = FACE_OUTER_BOUND ( 'NONE', #213, .T. ) ;
#201 = FACE_OUTER_BOUND ( 'NONE', #207, .T. ) ;
#202 = LINE ( 'NONE', #178, #205 ) ;
#203 = EDGE_CURVE ( 'NONE', #9, #10, #239, .T. ) ;
#204 = DIRECTION ( 'NONE',  ( 0.000000000000000000, 0.000000000000000000, 1.000000000000000000 ) ) ;
#205 = VECTOR ( 'NONE', #25, 1000.000000000000000 ) ;
#206 = EDGE_CURVE ( 'NONE', #233, #105, #202, .T. ) ;
#207 = EDGE_LOOP ( 'NONE', ( #187, #85 ) ) ;
#208 = CIRCLE ( 'NONE', #49, 3.750000000000000000 ) ;
#209 = ORIENTED_EDGE ( 'NONE', *, *, #242, .F. ) ;
#210 = SECURITY_CLASSIFICATION_LEVEL ( 'unclassified' ) ;
#211 = LINE ( 'NONE', #35, #123 ) ;
#212 = DATE_TIME_ROLE ( 'creation_date' ) ;
#213 = EDGE_LOOP ( 'NONE', ( #15, #137, #246, #70 ) ) ;
#214 = ADVANCED_BREP_SHAPE_REPRESENTATION ( '5bec', ( #184, #224 ), #161 ) ;
#215 = DATE_AND_TIME ( #171, #229 ) ;
#216 = PRODUCT_DEFINITION_FORMATION_WITH_SPECIFIED_SOURCE ( 'LIBOVOLNÝ', '', #160, .NOT_KNOWN. ) ;
#217 = CALENDAR_DATE ( 2023, 12, 2 ) ;
#218 = FACE_OUTER_BOUND ( 'NONE', #46, .T. ) ;
#219 = AXIS2_PLACEMENT_3D ( 'NONE', #157, #41, #132 ) ;
#220 = CARTESIAN_POINT ( 'NONE',  ( 0.000000000000000000, 0.000000000000000000, 5.000000000000000000 ) ) ;
#221 = DIRECTION ( 'NONE',  ( -0.000000000000000000, -0.000000000000000000, -1.000000000000000000 ) ) ;
#222 = CC_DESIGN_PERSON_AND_ORGANIZATION_ASSIGNMENT ( #13, #74, ( #216 ) ) ;
#223 = CARTESIAN_POINT ( 'NONE',  ( 6.000000000000000888, 7.347880794884120722E-16, 5.000000000000000000 ) ) ;
#224 = AXIS2_PLACEMENT_3D ( 'NONE', #248, #65, #148 ) ;
#225 = CARTESIAN_POINT ( 'NONE',  ( 0.000000000000000000, 0.000000000000000000, 5.000000000000000000 ) ) ;
#226 = DESIGN_CONTEXT ( 'detailed design', #66, 'design' ) ;
#227 = ORIENTED_EDGE ( 'NONE', *, *, #101, .F. ) ;
#228 = CLOSED_SHELL ( 'NONE', ( #39, #82, #180, #240, #146, #24, #196 ) ) ;
#229 = LOCAL_TIME ( 12, 22, 12.00000000000000000, #133 ) ;
#230 = MECHANICAL_CONTEXT ( 'NONE', #73, 'mechanical' ) ;
#231 = APPROVAL ( #19, 'NEURÈENÝ' ) ;
#232 = VERTEX_POINT ( 'NONE', #63 ) ;
#233 = VERTEX_POINT ( 'NONE', #223 ) ;
#234 = APPROVAL_PERSON_ORGANIZATION ( #253, #88, #131 ) ;
#235 = PERSON_AND_ORGANIZATION ( #179, #75 ) ;
#236 = CYLINDRICAL_SURFACE ( 'NONE', #47, 6.000000000000000888 ) ;
#237 = AXIS2_PLACEMENT_3D ( 'NONE', #151, #18, #252 ) ;
#238 = DATE_TIME_ROLE ( 'classification_date' ) ;
#239 = CIRCLE ( 'NONE', #165, 3.750000000000000000 ) ;
#240 = ADVANCED_FACE ( 'NONE', ( #79, #45 ), #159, .T. ) ;
#241 =( LENGTH_UNIT ( ) NAMED_UNIT ( * ) SI_UNIT ( .MILLI., .METRE. ) );
#242 = EDGE_CURVE ( 'NONE', #10, #20, #164, .T. ) ;
#243 = DIRECTION ( 'NONE',  ( -1.000000000000000000, 0.000000000000000000, 0.000000000000000000 ) ) ;
#244 = FACE_OUTER_BOUND ( 'NONE', #33, .T. ) ;
#245 = CARTESIAN_POINT ( 'NONE',  ( 0.000000000000000000, 0.000000000000000000, 5.000000000000000000 ) ) ;
#246 = ORIENTED_EDGE ( 'NONE', *, *, #48, .T. ) ;
#247 = CC_DESIGN_DATE_AND_TIME_ASSIGNMENT ( #191, #238, ( #106 ) ) ;
#248 = CARTESIAN_POINT ( 'NONE',  ( 0.000000000000000000, 0.000000000000000000, 0.000000000000000000 ) ) ;
#249 = ORIENTED_EDGE ( 'NONE', *, *, #242, .T. ) ;
#250 = ORIENTED_EDGE ( 'NONE', *, *, #54, .F. ) ;
#251 = VERTEX_POINT ( 'NONE', #98 ) ;
#252 = DIRECTION ( 'NONE',  ( -1.000000000000000000, 0.000000000000000000, 0.000000000000000000 ) ) ;
#253 = PERSON_AND_ORGANIZATION ( #179, #75 ) ;
#254 = CIRCLE ( 'NONE', #51, 3.750000000000000000 ) ;
#255 = ORIENTED_EDGE ( 'NONE', *, *, #206, .T. ) ;
ENDSEC;
END-ISO-10303-21;
