ISO-10303-21;
HEADER;
FILE_DESCRIPTION (( 'STEP AP203' ),
    '1' );
FILE_NAME ('1d29.STEP',
    '2022-07-07T12:22:34',
    ( '' ),
    ( '' ),
    'SwSTEP 2.0',
    'SolidWorks 2019',
    '' );
FILE_SCHEMA (( 'CONFIG_CONTROL_DESIGN' ));
ENDSEC;

DATA;
#1 = DIRECTION ( 'NONE',  ( 0.000000000000000000, 0.000000000000000000, 1.000000000000000000 ) ) ;
#2 = DIRECTION ( 'NONE',  ( 0.000000000000000000, 0.000000000000000000, 1.000000000000000000 ) ) ;
#3 = AXIS2_PLACEMENT_3D ( 'NONE', #154, #64, #277 ) ;
#4 = DIRECTION ( 'NONE',  ( 1.224646799147353207E-16, 1.000000000000000000, -0.000000000000000000 ) ) ;
#5 = DIRECTION ( 'NONE',  ( -0.000000000000000000, -0.000000000000000000, -1.000000000000000000 ) ) ;
#6 = APPROVAL_DATE_TIME ( #121, #184 ) ;
#7 = ORIENTED_EDGE ( 'NONE', *, *, #169, .F. ) ;
#8 = ORIENTED_EDGE ( 'NONE', *, *, #94, .T. ) ;
#9 =( NAMED_UNIT ( * ) PLANE_ANGLE_UNIT ( ) SI_UNIT ( $, .RADIAN. ) );
#10 = DATE_AND_TIME ( #57, #197 ) ;
#11 = ORIENTED_EDGE ( 'NONE', *, *, #160, .F. ) ;
#12 = TOROIDAL_SURFACE ( 'NONE', #46, 7.200000000000000178, 0.2000000000000000111 ) ;
#13 = EDGE_LOOP ( 'NONE', ( #79, #273, #156, #216 ) ) ;
#14 = PERSON ( 'NEURÈENÝ', 'NEURÈENÝ', 'NEURÈENÝ', ('NEURÈENÝ'), ('NEURÈENÝ'), ('NEURÈENÝ') ) ;
#15 = DIRECTION ( 'NONE',  ( 0.000000000000000000, 0.000000000000000000, 1.000000000000000000 ) ) ;
#16 = CIRCLE ( 'NONE', #113, 7.000000000000000000 ) ;
#17 = ORIENTED_EDGE ( 'NONE', *, *, #94, .F. ) ;
#18 = DIRECTION ( 'NONE',  ( -0.000000000000000000, -0.000000000000000000, -1.000000000000000000 ) ) ;
#19 = EDGE_CURVE ( 'NONE', #224, #233, #181, .T. ) ;
#20 = CARTESIAN_POINT ( 'NONE',  ( 7.000000000000000000, 8.572527594031473190E-16, 167.0000000000000000 ) ) ;
#21 = DIRECTION ( 'NONE',  ( 0.000000000000000000, 0.000000000000000000, 1.000000000000000000 ) ) ;
#22 = AXIS2_PLACEMENT_3D ( 'NONE', #226, #249, #135 ) ;
#23 = EDGE_CURVE ( 'NONE', #39, #58, #16, .T. ) ;
#24 = CARTESIAN_POINT ( 'NONE',  ( 11.00000000000000000, 1.347111479062088405E-15, 7.000000000000000000 ) ) ;
#25 = DIRECTION ( 'NONE',  ( 1.000000000000000000, 0.000000000000000000, 0.000000000000000000 ) ) ;
#26 = DIRECTION ( 'NONE',  ( -0.000000000000000000, -0.000000000000000000, -1.000000000000000000 ) ) ;
#27 = DIRECTION ( 'NONE',  ( 1.000000000000000000, 0.000000000000000000, 0.000000000000000000 ) ) ;
#28 = ADVANCED_FACE ( 'NONE', ( #298 ), #134, .T. ) ;
#29 = AXIS2_PLACEMENT_3D ( 'NONE', #234, #21, #240 ) ;
#30 = APPLICATION_PROTOCOL_DEFINITION ( 'international standard', 'config_control_design', 1994, #291 ) ;
#31 = ORIENTED_EDGE ( 'NONE', *, *, #239, .T. ) ;
#32 = EDGE_LOOP ( 'NONE', ( #195, #290, #37, #124 ) ) ;
#33 = CIRCLE ( 'NONE', #194, 11.00000000000000000 ) ;
#34 = EDGE_CURVE ( 'NONE', #180, #225, #155, .T. ) ;
#35 = PERSON_AND_ORGANIZATION ( #14, #42 ) ;
#36 = CIRCLE ( 'NONE', #97, 7.000000000000000000 ) ;
#37 = ORIENTED_EDGE ( 'NONE', *, *, #260, .T. ) ;
#38 = DATE_TIME_ROLE ( 'classification_date' ) ;
#39 = VERTEX_POINT ( 'NONE', #300 ) ;
#40 = CARTESIAN_POINT ( 'NONE',  ( 11.00000000000000000, 1.347111479062088405E-15, 7.000000000000000000 ) ) ;
#41 = CARTESIAN_POINT ( 'NONE',  ( -7.000000000000000000, 0.000000000000000000, 7.200000000000011724 ) ) ;
#42 = ORGANIZATION ( 'NEURÈENÝ', 'NEURÈENÝ', '' ) ;
#43 = VERTEX_POINT ( 'NONE', #63 ) ;
#44 = DIRECTION ( 'NONE',  ( -0.000000000000000000, -0.000000000000000000, -1.000000000000000000 ) ) ;
#45 = LINE ( 'NONE', #20, #268 ) ;
#46 = AXIS2_PLACEMENT_3D ( 'NONE', #241, #141, #138 ) ;
#47 = DIRECTION ( 'NONE',  ( 0.000000000000000000, 0.000000000000000000, 1.000000000000000000 ) ) ;
#48 = CIRCLE ( 'NONE', #203, 7.000000000000000000 ) ;
#49 = CARTESIAN_POINT ( 'NONE',  ( -11.00000000000000000, 0.000000000000000000, 7.000000000000000000 ) ) ;
#50 = DIRECTION ( 'NONE',  ( -0.000000000000000000, -0.000000000000000000, -1.000000000000000000 ) ) ;
#51 = APPROVAL ( #125, 'NEURÈENÝ' ) ;
#52 = CYLINDRICAL_SURFACE ( 'NONE', #132, 11.00000000000000000 ) ;
#53 = DATE_AND_TIME ( #263, #96 ) ;
#54 = CIRCLE ( 'NONE', #146, 7.000000000000000000 ) ;
#55 = VECTOR ( 'NONE', #5, 1000.000000000000000 ) ;
#56 = ORIENTED_EDGE ( 'NONE', *, *, #34, .F. ) ;
#57 = CALENDAR_DATE ( 2022, 7, 7 ) ;
#58 = VERTEX_POINT ( 'NONE', #41 ) ;
#59 = PERSON_AND_ORGANIZATION ( #14, #42 ) ;
#60 = COORDINATED_UNIVERSAL_TIME_OFFSET ( 1, 0, .AHEAD. ) ;
#61 = VECTOR ( 'NONE', #50, 1000.000000000000000 ) ;
#62 = CC_DESIGN_DATE_AND_TIME_ASSIGNMENT ( #223, #38, ( #296 ) ) ;
#63 = CARTESIAN_POINT ( 'NONE',  ( 7.000000000000000000, 8.572527594031473190E-16, 167.0000000000000000 ) ) ;
#64 = DIRECTION ( 'NONE',  ( -0.000000000000000000, -0.000000000000000000, -1.000000000000000000 ) ) ;
#65 = CYLINDRICAL_SURFACE ( 'NONE', #107, 11.00000000000000000 ) ;
#66 = FACE_OUTER_BOUND ( 'NONE', #175, .T. ) ;
#67 = CYLINDRICAL_SURFACE ( 'NONE', #237, 7.000000000000000000 ) ;
#68 = CARTESIAN_POINT ( 'NONE',  ( -7.200000000000000178, 8.817456953860942303E-16, 7.000000000000006217 ) ) ;
#69 = LOCAL_TIME ( 14, 22, 34.00000000000000000, #177 ) ;
#70 = LINE ( 'NONE', #188, #55 ) ;
#71 = TOROIDAL_SURFACE ( 'NONE', #229, 7.200000000000000178, 0.2000000000000000111 ) ;
#72 = FACE_OUTER_BOUND ( 'NONE', #245, .T. ) ;
#73 = CIRCLE ( 'NONE', #89, 0.1999999999999996503 ) ;
#74 = EDGE_CURVE ( 'NONE', #148, #127, #33, .T. ) ;
#75 = DIRECTION ( 'NONE',  ( -0.000000000000000000, -0.000000000000000000, -1.000000000000000000 ) ) ;
#76 = APPROVAL_ROLE ( '' ) ;
#77 = AXIS2_PLACEMENT_3D ( 'NONE', #87, #15, #303 ) ;
#78 = PERSON_AND_ORGANIZATION ( #14, #42 ) ;
#79 = ORIENTED_EDGE ( 'NONE', *, *, #274, .F. ) ;
#80 = PERSON_AND_ORGANIZATION_ROLE ( 'design_owner' ) ;
#81 = APPLICATION_PROTOCOL_DEFINITION ( 'international standard', 'config_control_design', 1994, #209 ) ;
#82 = PERSON_AND_ORGANIZATION_ROLE ( 'creator' ) ;
#83 = CC_DESIGN_SECURITY_CLASSIFICATION ( #296, ( #115 ) ) ;
#84 = EDGE_LOOP ( 'NONE', ( #129, #133, #56, #297 ) ) ;
#85 = DIRECTION ( 'NONE',  ( 1.000000000000000000, 0.000000000000000000, 0.000000000000000000 ) ) ;
#86 = ORIENTED_EDGE ( 'NONE', *, *, #274, .T. ) ;
#87 = CARTESIAN_POINT ( 'NONE',  ( 0.000000000000000000, 0.000000000000000000, 0.000000000000000000 ) ) ;
#88 = CARTESIAN_POINT ( 'NONE',  ( 0.000000000000000000, 0.000000000000000000, 167.0000000000000000 ) ) ;
#89 = AXIS2_PLACEMENT_3D ( 'NONE', #261, #4, #95 ) ;
#90 = DIRECTION ( 'NONE',  ( 1.000000000000000000, 0.000000000000000000, 0.000000000000000000 ) ) ;
#91 = CC_DESIGN_APPROVAL ( #51, ( #191 ) ) ;
#92 = DIRECTION ( 'NONE',  ( 0.000000000000000000, -1.000000000000000000, 0.000000000000000000 ) ) ;
#93 = DIRECTION ( 'NONE',  ( 0.000000000000000000, 0.000000000000000000, 1.000000000000000000 ) ) ;
#94 = EDGE_CURVE ( 'NONE', #122, #43, #48, .T. ) ;
#95 = DIRECTION ( 'NONE',  ( -1.000000000000000000, 1.224646799147358384E-16, 0.000000000000000000 ) ) ;
#96 = LOCAL_TIME ( 14, 22, 34.00000000000000000, #151 ) ;
#97 = AXIS2_PLACEMENT_3D ( 'NONE', #140, #47, #90 ) ;
#98 = CARTESIAN_POINT ( 'NONE',  ( 7.200000000000000178, 0.000000000000000000, 7.200000000000011724 ) ) ;
#99 = UNCERTAINTY_MEASURE_WITH_UNIT (LENGTH_MEASURE( 1.000000000000000082E-05 ), #257, 'distance_accuracy_value', 'NONE');
#100 = ADVANCED_BREP_SHAPE_REPRESENTATION ( '1d29', ( #238, #173 ), #265 ) ;
#101 = PERSON_AND_ORGANIZATION_ROLE ( 'classification_officer' ) ;
#102 = ORIENTED_EDGE ( 'NONE', *, *, #293, .T. ) ;
#103 = ADVANCED_FACE ( 'NONE', ( #248 ), #65, .T. ) ;
#104 = ORIENTED_EDGE ( 'NONE', *, *, #23, .F. ) ;
#105 = CC_DESIGN_PERSON_AND_ORGANIZATION_ASSIGNMENT ( #59, #267, ( #191 ) ) ;
#106 = CARTESIAN_POINT ( 'NONE',  ( 0.000000000000000000, 0.000000000000000000, 7.000000000000000000 ) ) ;
#107 = AXIS2_PLACEMENT_3D ( 'NONE', #207, #18, #276 ) ;
#108 = DIRECTION ( 'NONE',  ( 1.000000000000000000, 0.000000000000000000, 0.000000000000000000 ) ) ;
#109 = LOCAL_TIME ( 14, 22, 34.00000000000000000, #60 ) ;
#110 = ORIENTED_EDGE ( 'NONE', *, *, #283, .F. ) ;
#111 = DIRECTION ( 'NONE',  ( -0.000000000000000000, -0.000000000000000000, -1.000000000000000000 ) ) ;
#112 = ADVANCED_FACE ( 'NONE', ( #252 ), #71, .F. ) ;
#113 = AXIS2_PLACEMENT_3D ( 'NONE', #185, #202, #230 ) ;
#114 = FACE_BOUND ( 'NONE', #305, .T. ) ;
#115 = PRODUCT_DEFINITION_FORMATION_WITH_SPECIFIED_SOURCE ( 'LIBOVOLNÝ', '', #285, .NOT_KNOWN. ) ;
#116 = FACE_OUTER_BOUND ( 'NONE', #13, .T. ) ;
#117 = PLANE ( 'NONE',  #162 ) ;
#118 = CARTESIAN_POINT ( 'NONE',  ( 0.000000000000000000, 0.000000000000000000, 167.0000000000000000 ) ) ;
#119 = DIRECTION ( 'NONE',  ( 1.000000000000000000, 0.000000000000000000, -0.000000000000000000 ) ) ;
#120 = AXIS2_PLACEMENT_3D ( 'NONE', #208, #93, #27 ) ;
#121 = DATE_AND_TIME ( #242, #144 ) ;
#122 = VERTEX_POINT ( 'NONE', #204 ) ;
#123 = PERSON_AND_ORGANIZATION ( #14, #42 ) ;
#124 = ORIENTED_EDGE ( 'NONE', *, *, #19, .T. ) ;
#125 = APPROVAL_STATUS ( 'not_yet_approved' ) ;
#126 = DATE_TIME_ROLE ( 'creation_date' ) ;
#127 = VERTEX_POINT ( 'NONE', #40 ) ;
#128 = DIRECTION ( 'NONE',  ( 0.000000000000000000, 0.000000000000000000, 1.000000000000000000 ) ) ;
#129 = ORIENTED_EDGE ( 'NONE', *, *, #266, .F. ) ;
#130 = CLOSED_SHELL ( 'NONE', ( #269, #145, #217, #103, #235, #251, #28, #205, #112 ) ) ;
#131 = ORIENTED_EDGE ( 'NONE', *, *, #293, .F. ) ;
#132 = AXIS2_PLACEMENT_3D ( 'NONE', #166, #26, #256 ) ;
#133 = ORIENTED_EDGE ( 'NONE', *, *, #299, .T. ) ;
#134 = CYLINDRICAL_SURFACE ( 'NONE', #3, 7.000000000000000000 ) ;
#135 = DIRECTION ( 'NONE',  ( 1.000000000000000000, 0.000000000000000000, 0.000000000000000000 ) ) ;
#136 = APPROVAL_PERSON_ORGANIZATION ( #289, #278, #294 ) ;
#137 = ORIENTED_EDGE ( 'NONE', *, *, #19, .F. ) ;
#138 = DIRECTION ( 'NONE',  ( 1.000000000000000000, 0.000000000000000000, 0.000000000000000000 ) ) ;
#139 = PLANE ( 'NONE',  #232 ) ;
#140 = CARTESIAN_POINT ( 'NONE',  ( 0.000000000000000000, 0.000000000000000000, 7.200000000000011724 ) ) ;
#141 = DIRECTION ( 'NONE',  ( 0.000000000000000000, 0.000000000000000000, 1.000000000000000000 ) ) ;
#142 = CARTESIAN_POINT ( 'NONE',  ( 0.000000000000000000, 0.000000000000000000, 7.000000000000000000 ) ) ;
#143 = COORDINATED_UNIVERSAL_TIME_OFFSET ( 1, 0, .AHEAD. ) ;
#144 = LOCAL_TIME ( 14, 22, 34.00000000000000000, #143 ) ;
#145 = ADVANCED_FACE ( 'NONE', ( #66 ), #67, .T. ) ;
#146 = AXIS2_PLACEMENT_3D ( 'NONE', #118, #284, #25 ) ;
#147 = CARTESIAN_POINT ( 'NONE',  ( 0.000000000000000000, 0.000000000000000000, 0.000000000000000000 ) ) ;
#148 = VERTEX_POINT ( 'NONE', #254 ) ;
#149 = APPROVAL_ROLE ( '' ) ;
#150 = EDGE_CURVE ( 'NONE', #43, #39, #45, .T. ) ;
#151 = COORDINATED_UNIVERSAL_TIME_OFFSET ( 1, 0, .AHEAD. ) ;
#152 = EDGE_LOOP ( 'NONE', ( #179, #17, #301, #271 ) ) ;
#153 = ORIENTED_EDGE ( 'NONE', *, *, #150, .T. ) ;
#154 = CARTESIAN_POINT ( 'NONE',  ( 0.000000000000000000, 0.000000000000000000, 167.0000000000000000 ) ) ;
#155 = CIRCLE ( 'NONE', #22, 7.200000000000000178 ) ;
#156 = ORIENTED_EDGE ( 'NONE', *, *, #283, .T. ) ;
#157 = PRODUCT_RELATED_PRODUCT_CATEGORY ( 'detail', '', ( #285 ) ) ;
#158 = EDGE_LOOP ( 'NONE', ( #159, #104, #31, #11 ) ) ;
#159 = ORIENTED_EDGE ( 'NONE', *, *, #299, .F. ) ;
#160 = EDGE_CURVE ( 'NONE', #225, #180, #286, .T. ) ;
#161 = DIRECTION ( 'NONE',  ( -1.000000000000000000, 0.000000000000000000, 0.000000000000000000 ) ) ;
#162 = AXIS2_PLACEMENT_3D ( 'NONE', #262, #2, #258 ) ;
#163 = DIRECTION ( 'NONE',  ( -0.000000000000000000, -0.000000000000000000, -1.000000000000000000 ) ) ;
#164 = CC_DESIGN_PERSON_AND_ORGANIZATION_ASSIGNMENT ( #123, #80, ( #285 ) ) ;
#165 = LINE ( 'NONE', #49, #307 ) ;
#166 = CARTESIAN_POINT ( 'NONE',  ( 0.000000000000000000, 0.000000000000000000, 7.000000000000000000 ) ) ;
#167 = AXIS2_PLACEMENT_3D ( 'NONE', #214, #163, #236 ) ;
#168 = CARTESIAN_POINT ( 'NONE',  ( 11.00000000000000000, 1.347111479062088405E-15, 0.000000000000000000 ) ) ;
#169 = EDGE_CURVE ( 'NONE', #122, #58, #70, .T. ) ;
#170 = APPROVAL_DATE_TIME ( #10, #278 ) ;
#171 = APPROVAL_STATUS ( 'not_yet_approved' ) ;
#172 = CC_DESIGN_APPROVAL ( #278, ( #115 ) ) ;
#173 = AXIS2_PLACEMENT_3D ( 'NONE', #147, #128, #196 ) ;
#174 = APPROVAL_DATE_TIME ( #244, #51 ) ;
#175 = EDGE_LOOP ( 'NONE', ( #131, #153, #198, #7 ) ) ;
#176 = CC_DESIGN_DATE_AND_TIME_ASSIGNMENT ( #53, #126, ( #191 ) ) ;
#177 = COORDINATED_UNIVERSAL_TIME_OFFSET ( 1, 0, .AHEAD. ) ;
#178 = PERSON_AND_ORGANIZATION ( #14, #42 ) ;
#179 = ORIENTED_EDGE ( 'NONE', *, *, #150, .F. ) ;
#180 = VERTEX_POINT ( 'NONE', #211 ) ;
#181 = CIRCLE ( 'NONE', #77, 11.00000000000000000 ) ;
#182 = DIRECTION ( 'NONE',  ( 0.000000000000000000, 0.000000000000000000, 1.000000000000000000 ) ) ;
#183 = DIRECTION ( 'NONE',  ( 0.000000000000000000, 0.000000000000000000, 1.000000000000000000 ) ) ;
#184 = APPROVAL ( #171, 'NEURÈENÝ' ) ;
#185 = CARTESIAN_POINT ( 'NONE',  ( 0.000000000000000000, 0.000000000000000000, 7.200000000000011724 ) ) ;
#186 = ORIENTED_EDGE ( 'NONE', *, *, #74, .T. ) ;
#187 = FACE_OUTER_BOUND ( 'NONE', #84, .T. ) ;
#188 = CARTESIAN_POINT ( 'NONE',  ( -7.000000000000000000, 0.000000000000000000, 167.0000000000000000 ) ) ;
#189 = FACE_OUTER_BOUND ( 'NONE', #295, .T. ) ;
#190 = CARTESIAN_POINT ( 'NONE',  ( 0.000000000000000000, 0.000000000000000000, 0.000000000000000000 ) ) ;
#191 = PRODUCT_DEFINITION ( 'NEZNÁMÝ', '', #115, #259 ) ;
#192 =( NAMED_UNIT ( * ) SI_UNIT ( $, .STERADIAN. ) SOLID_ANGLE_UNIT ( ) );
#193 = PERSON_AND_ORGANIZATION ( #14, #42 ) ;
#194 = AXIS2_PLACEMENT_3D ( 'NONE', #106, #183, #85 ) ;
#195 = ORIENTED_EDGE ( 'NONE', *, *, #200, .F. ) ;
#196 = DIRECTION ( 'NONE',  ( 1.000000000000000000, 0.000000000000000000, 0.000000000000000000 ) ) ;
#197 = LOCAL_TIME ( 14, 22, 34.00000000000000000, #243 ) ;
#198 = ORIENTED_EDGE ( 'NONE', *, *, #23, .T. ) ;
#199 = ORIENTED_EDGE ( 'NONE', *, *, #34, .T. ) ;
#200 = EDGE_CURVE ( 'NONE', #127, #233, #287, .T. ) ;
#201 = DIRECTION ( 'NONE',  ( 0.000000000000000000, 0.000000000000000000, 1.000000000000000000 ) ) ;
#202 = DIRECTION ( 'NONE',  ( 0.000000000000000000, 0.000000000000000000, 1.000000000000000000 ) ) ;
#203 = AXIS2_PLACEMENT_3D ( 'NONE', #88, #182, #275 ) ;
#204 = CARTESIAN_POINT ( 'NONE',  ( -7.000000000000000000, 0.000000000000000000, 167.0000000000000000 ) ) ;
#205 = ADVANCED_FACE ( 'NONE', ( #72 ), #117, .T. ) ;
#206 = AXIS2_PLACEMENT_3D ( 'NONE', #190, #279, #119 ) ;
#207 = CARTESIAN_POINT ( 'NONE',  ( 0.000000000000000000, 0.000000000000000000, 7.000000000000000000 ) ) ;
#208 = CARTESIAN_POINT ( 'NONE',  ( 0.000000000000000000, 0.000000000000000000, 0.000000000000000000 ) ) ;
#209 = APPLICATION_CONTEXT ( 'configuration controlled 3d designs of mechanical parts and assemblies' ) ;
#210 = CARTESIAN_POINT ( 'NONE',  ( -11.00000000000000000, 0.000000000000000000, 0.000000000000000000 ) ) ;
#211 = CARTESIAN_POINT ( 'NONE',  ( 7.200000000000000178, 0.000000000000000000, 7.000000000000006217 ) ) ;
#212 = DIRECTION ( 'NONE',  ( 1.000000000000000000, 0.000000000000000000, -0.000000000000000000 ) ) ;
#213 = CC_DESIGN_PERSON_AND_ORGANIZATION_ASSIGNMENT ( #78, #82, ( #115 ) ) ;
#214 = CARTESIAN_POINT ( 'NONE',  ( 0.000000000000000000, 0.000000000000000000, 7.000000000000000000 ) ) ;
#215 = PERSON_AND_ORGANIZATION_ROLE ( 'design_supplier' ) ;
#216 = ORIENTED_EDGE ( 'NONE', *, *, #260, .F. ) ;
#217 = ADVANCED_FACE ( 'NONE', ( #116 ), #52, .T. ) ;
#218 = CALENDAR_DATE ( 2022, 7, 7 ) ;
#219 = EDGE_LOOP ( 'NONE', ( #186, #86 ) ) ;
#220 = APPROVAL_STATUS ( 'not_yet_approved' ) ;
#221 = SECURITY_CLASSIFICATION_LEVEL ( 'unclassified' ) ;
#222 = ORIENTED_EDGE ( 'NONE', *, *, #160, .T. ) ;
#223 = DATE_AND_TIME ( #246, #109 ) ;
#224 = VERTEX_POINT ( 'NONE', #210 ) ;
#225 = VERTEX_POINT ( 'NONE', #68 ) ;
#226 = CARTESIAN_POINT ( 'NONE',  ( 0.000000000000000000, 0.000000000000000000, 7.000000000000000000 ) ) ;
#227 = CARTESIAN_POINT ( 'NONE',  ( 0.000000000000000000, 0.000000000000000000, 7.200000000000011724 ) ) ;
#228 = PRODUCT_DEFINITION_SHAPE ( 'NONE', 'NONE',  #191 ) ;
#229 = AXIS2_PLACEMENT_3D ( 'NONE', #227, #201, #108 ) ;
#230 = DIRECTION ( 'NONE',  ( 1.000000000000000000, 0.000000000000000000, 0.000000000000000000 ) ) ;
#231 = APPROVAL_PERSON_ORGANIZATION ( #288, #184, #76 ) ;
#232 = AXIS2_PLACEMENT_3D ( 'NONE', #142, #1, #212 ) ;
#233 = VERTEX_POINT ( 'NONE', #168 ) ;
#234 = CARTESIAN_POINT ( 'NONE',  ( 0.000000000000000000, 0.000000000000000000, 7.000000000000000000 ) ) ;
#235 = ADVANCED_FACE ( 'NONE', ( #114, #281 ), #139, .T. ) ;
#236 = DIRECTION ( 'NONE',  ( 1.000000000000000000, 0.000000000000000000, 0.000000000000000000 ) ) ;
#237 = AXIS2_PLACEMENT_3D ( 'NONE', #253, #44, #161 ) ;
#238 = MANIFOLD_SOLID_BREP ( 'Zaoblit1', #130 ) ;
#239 = EDGE_CURVE ( 'NONE', #39, #180, #280, .T. ) ;
#240 = DIRECTION ( 'NONE',  ( 1.000000000000000000, 0.000000000000000000, 0.000000000000000000 ) ) ;
#241 = CARTESIAN_POINT ( 'NONE',  ( 0.000000000000000000, 0.000000000000000000, 7.200000000000011724 ) ) ;
#242 = CALENDAR_DATE ( 2022, 7, 7 ) ;
#243 = COORDINATED_UNIVERSAL_TIME_OFFSET ( 1, 0, .AHEAD. ) ;
#244 = DATE_AND_TIME ( #218, #69 ) ;
#245 = EDGE_LOOP ( 'NONE', ( #8, #102 ) ) ;
#246 = CALENDAR_DATE ( 2022, 7, 7 ) ;
#247 = CC_DESIGN_PERSON_AND_ORGANIZATION_ASSIGNMENT ( #35, #215, ( #115 ) ) ;
#248 = FACE_OUTER_BOUND ( 'NONE', #32, .T. ) ;
#249 = DIRECTION ( 'NONE',  ( -0.000000000000000000, -0.000000000000000000, -1.000000000000000000 ) ) ;
#250 = APPROVAL_PERSON_ORGANIZATION ( #193, #51, #149 ) ;
#251 = ADVANCED_FACE ( 'NONE', ( #189 ), #306, .F. ) ;
#252 = FACE_OUTER_BOUND ( 'NONE', #158, .T. ) ;
#253 = CARTESIAN_POINT ( 'NONE',  ( 0.000000000000000000, 0.000000000000000000, 167.0000000000000000 ) ) ;
#254 = CARTESIAN_POINT ( 'NONE',  ( -11.00000000000000000, 0.000000000000000000, 7.000000000000000000 ) ) ;
#255 = CIRCLE ( 'NONE', #29, 11.00000000000000000 ) ;
#256 = DIRECTION ( 'NONE',  ( -1.000000000000000000, 0.000000000000000000, 0.000000000000000000 ) ) ;
#257 =( LENGTH_UNIT ( ) NAMED_UNIT ( * ) SI_UNIT ( .MILLI., .METRE. ) );
#258 = DIRECTION ( 'NONE',  ( 1.000000000000000000, 0.000000000000000000, -0.000000000000000000 ) ) ;
#259 = DESIGN_CONTEXT ( 'detailed design', #291, 'design' ) ;
#260 = EDGE_CURVE ( 'NONE', #148, #224, #165, .T. ) ;
#261 = CARTESIAN_POINT ( 'NONE',  ( -7.200000000000000178, 8.817456953860942303E-16, 7.200000000000011724 ) ) ;
#262 = CARTESIAN_POINT ( 'NONE',  ( 0.000000000000000000, 0.000000000000000000, 167.0000000000000000 ) ) ;
#263 = CALENDAR_DATE ( 2022, 7, 7 ) ;
#264 = SHAPE_DEFINITION_REPRESENTATION ( #228, #100 ) ;
#265 =( GEOMETRIC_REPRESENTATION_CONTEXT ( 3 ) GLOBAL_UNCERTAINTY_ASSIGNED_CONTEXT ( ( #99 ) ) GLOBAL_UNIT_ASSIGNED_CONTEXT ( ( #257, #9, #192 ) ) REPRESENTATION_CONTEXT ( 'NONE', 'WORKASPACE' ) );
#266 = EDGE_CURVE ( 'NONE', #58, #39, #36, .T. ) ;
#267 = PERSON_AND_ORGANIZATION_ROLE ( 'creator' ) ;
#268 = VECTOR ( 'NONE', #111, 1000.000000000000000 ) ;
#269 = ADVANCED_FACE ( 'NONE', ( #187 ), #12, .F. ) ;
#270 = CC_DESIGN_APPROVAL ( #184, ( #296 ) ) ;
#271 = ORIENTED_EDGE ( 'NONE', *, *, #266, .T. ) ;
#272 = CIRCLE ( 'NONE', #120, 11.00000000000000000 ) ;
#273 = ORIENTED_EDGE ( 'NONE', *, *, #200, .T. ) ;
#274 = EDGE_CURVE ( 'NONE', #127, #148, #255, .T. ) ;
#275 = DIRECTION ( 'NONE',  ( 1.000000000000000000, 0.000000000000000000, 0.000000000000000000 ) ) ;
#276 = DIRECTION ( 'NONE',  ( -1.000000000000000000, 0.000000000000000000, 0.000000000000000000 ) ) ;
#277 = DIRECTION ( 'NONE',  ( -1.000000000000000000, 0.000000000000000000, 0.000000000000000000 ) ) ;
#278 = APPROVAL ( #220, 'NEURÈENÝ' ) ;
#279 = DIRECTION ( 'NONE',  ( 0.000000000000000000, 0.000000000000000000, 1.000000000000000000 ) ) ;
#280 = CIRCLE ( 'NONE', #302, 0.1999999999999996503 ) ;
#281 = FACE_OUTER_BOUND ( 'NONE', #219, .T. ) ;
#282 = DIRECTION ( 'NONE',  ( 0.000000000000000000, 0.000000000000000000, -1.000000000000000000 ) ) ;
#283 = EDGE_CURVE ( 'NONE', #233, #224, #272, .T. ) ;
#284 = DIRECTION ( 'NONE',  ( 0.000000000000000000, 0.000000000000000000, 1.000000000000000000 ) ) ;
#285 = PRODUCT ( '1d29', '1d29', '', ( #292 ) ) ;
#286 = CIRCLE ( 'NONE', #167, 7.200000000000000178 ) ;
#287 = LINE ( 'NONE', #24, #61 ) ;
#288 = PERSON_AND_ORGANIZATION ( #14, #42 ) ;
#289 = PERSON_AND_ORGANIZATION ( #14, #42 ) ;
#290 = ORIENTED_EDGE ( 'NONE', *, *, #74, .F. ) ;
#291 = APPLICATION_CONTEXT ( 'configuration controlled 3d designs of mechanical parts and assemblies' ) ;
#292 = MECHANICAL_CONTEXT ( 'NONE', #209, 'mechanical' ) ;
#293 = EDGE_CURVE ( 'NONE', #43, #122, #54, .T. ) ;
#294 = APPROVAL_ROLE ( '' ) ;
#295 = EDGE_LOOP ( 'NONE', ( #137, #110 ) ) ;
#296 = SECURITY_CLASSIFICATION ( '', '', #221 ) ;
#297 = ORIENTED_EDGE ( 'NONE', *, *, #239, .F. ) ;
#298 = FACE_OUTER_BOUND ( 'NONE', #152, .T. ) ;
#299 = EDGE_CURVE ( 'NONE', #58, #225, #73, .T. ) ;
#300 = CARTESIAN_POINT ( 'NONE',  ( 7.000000000000000000, 8.572527594031473190E-16, 7.200000000000011724 ) ) ;
#301 = ORIENTED_EDGE ( 'NONE', *, *, #169, .T. ) ;
#302 = AXIS2_PLACEMENT_3D ( 'NONE', #98, #92, #282 ) ;
#303 = DIRECTION ( 'NONE',  ( 1.000000000000000000, 0.000000000000000000, 0.000000000000000000 ) ) ;
#304 = CC_DESIGN_PERSON_AND_ORGANIZATION_ASSIGNMENT ( #178, #101, ( #296 ) ) ;
#305 = EDGE_LOOP ( 'NONE', ( #199, #222 ) ) ;
#306 = PLANE ( 'NONE',  #206 ) ;
#307 = VECTOR ( 'NONE', #75, 1000.000000000000000 ) ;
ENDSEC;
END-ISO-10303-21;
