ISO-10303-21;
HEADER;
FILE_DESCRIPTION (( 'STEP AP203' ),
    '1' );
FILE_NAME ('be8a.STEP',
    '2022-07-07T12:53:18',
    ( '' ),
    ( '' ),
    'SwSTEP 2.0',
    'SolidWorks 2019',
    '' );
FILE_SCHEMA (( 'CONFIG_CONTROL_DESIGN' ));
ENDSEC;

DATA;
#1 = APPROVAL_STATUS ( 'not_yet_approved' ) ;
#2 = ORIENTED_EDGE ( 'NONE', *, *, #45, .T. ) ;
#3 = AXIS2_PLACEMENT_3D ( 'NONE', #173, #151, #131 ) ;
#4 = AXIS2_PLACEMENT_3D ( 'NONE', #275, #182, #303 ) ;
#5 = ORIENTED_EDGE ( 'NONE', *, *, #133, .F. ) ;
#6 = UNCERTAINTY_MEASURE_WITH_UNIT (LENGTH_MEASURE( 1.000000000000000082E-05 ), #113, 'distance_accuracy_value', 'NONE');
#7 = ORIENTED_EDGE ( 'NONE', *, *, #8, .T. ) ;
#8 = EDGE_CURVE ( 'NONE', #186, #17, #212, .T. ) ;
#9 = CARTESIAN_POINT ( 'NONE',  ( 0.000000000000000000, 0.000000000000000000, 103.0000000000000142 ) ) ;
#10 = AXIS2_PLACEMENT_3D ( 'NONE', #204, #36, #152 ) ;
#11 = AXIS2_PLACEMENT_3D ( 'NONE', #290, #104, #77 ) ;
#12 = APPROVAL_PERSON_ORGANIZATION ( #214, #171, #96 ) ;
#13 = ORIENTED_EDGE ( 'NONE', *, *, #161, .F. ) ;
#14 = VERTEX_POINT ( 'NONE', #156 ) ;
#15 = VERTEX_POINT ( 'NONE', #38 ) ;
#16 = AXIS2_PLACEMENT_3D ( 'NONE', #251, #37, #132 ) ;
#17 = VERTEX_POINT ( 'NONE', #35 ) ;
#18 = CARTESIAN_POINT ( 'NONE',  ( 0.000000000000000000, 0.000000000000000000, 0.000000000000000000 ) ) ;
#19 = CARTESIAN_POINT ( 'NONE',  ( 0.000000000000000000, 0.000000000000000000, 0.000000000000000000 ) ) ;
#20 = DIRECTION ( 'NONE',  ( 1.000000000000000000, 0.000000000000000000, 0.000000000000000000 ) ) ;
#21 = VECTOR ( 'NONE', #157, 1000.000000000000000 ) ;
#22 = ORIENTED_EDGE ( 'NONE', *, *, #252, .F. ) ;
#23 = DIRECTION ( 'NONE',  ( -0.000000000000000000, -0.000000000000000000, -1.000000000000000000 ) ) ;
#24 = APPROVAL_DATE_TIME ( #282, #117 ) ;
#25 = AXIS2_PLACEMENT_3D ( 'NONE', #9, #200, #273 ) ;
#26 = DATE_TIME_ROLE ( 'classification_date' ) ;
#27 = ADVANCED_FACE ( 'NONE', ( #56 ), #134, .T. ) ;
#28 = SHAPE_DEFINITION_REPRESENTATION ( #292, #297 ) ;
#29 = ORIENTED_EDGE ( 'NONE', *, *, #40, .T. ) ;
#30 = PERSON_AND_ORGANIZATION ( #248, #245 ) ;
#31 = VERTEX_POINT ( 'NONE', #291 ) ;
#32 = CIRCLE ( 'NONE', #128, 3.500000000000000444 ) ;
#33 = ADVANCED_FACE ( 'NONE', ( #250 ), #224, .T. ) ;
#34 = ORIENTED_EDGE ( 'NONE', *, *, #100, .T. ) ;
#35 = CARTESIAN_POINT ( 'NONE',  ( 1.950000000000000400, 0.000000000000000000, 2.999999999999997335 ) ) ;
#36 = DIRECTION ( 'NONE',  ( -0.000000000000000000, -0.000000000000000000, -1.000000000000000000 ) ) ;
#37 = DIRECTION ( 'NONE',  ( -0.000000000000000000, -0.000000000000000000, -1.000000000000000000 ) ) ;
#38 = CARTESIAN_POINT ( 'NONE',  ( -1.950000000000000400, 2.388061258337339136E-16, 2.999999999999997335 ) ) ;
#39 = CARTESIAN_POINT ( 'NONE',  ( -3.500000000000000444, 0.000000000000000000, 3.000000000000000000 ) ) ;
#40 = EDGE_CURVE ( 'NONE', #55, #31, #142, .T. ) ;
#41 = CARTESIAN_POINT ( 'NONE',  ( 0.000000000000000000, 0.000000000000000000, 103.0000000000000142 ) ) ;
#42 = DIRECTION ( 'NONE',  ( -0.000000000000000000, -0.000000000000000000, -1.000000000000000000 ) ) ;
#43 = ORIENTED_EDGE ( 'NONE', *, *, #40, .F. ) ;
#44 = FACE_OUTER_BOUND ( 'NONE', #114, .T. ) ;
#45 = EDGE_CURVE ( 'NONE', #186, #140, #187, .T. ) ;
#46 = CARTESIAN_POINT ( 'NONE',  ( -3.500000000000000444, 0.000000000000000000, 0.000000000000000000 ) ) ;
#47 = ORIENTED_EDGE ( 'NONE', *, *, #8, .F. ) ;
#48 =( NAMED_UNIT ( * ) SI_UNIT ( $, .STERADIAN. ) SOLID_ANGLE_UNIT ( ) );
#49 = COORDINATED_UNIVERSAL_TIME_OFFSET ( 1, 0, .AHEAD. ) ;
#50 = CC_DESIGN_APPROVAL ( #171, ( #82 ) ) ;
#51 = EDGE_CURVE ( 'NONE', #140, #15, #230, .T. ) ;
#52 = COORDINATED_UNIVERSAL_TIME_OFFSET ( 1, 0, .AHEAD. ) ;
#53 = ORIENTED_EDGE ( 'NONE', *, *, #58, .F. ) ;
#54 = CIRCLE ( 'NONE', #111, 1.950000000000000400 ) ;
#55 = VERTEX_POINT ( 'NONE', #61 ) ;
#56 = FACE_OUTER_BOUND ( 'NONE', #150, .T. ) ;
#57 = FACE_OUTER_BOUND ( 'NONE', #172, .T. ) ;
#58 = EDGE_CURVE ( 'NONE', #14, #268, #154, .T. ) ;
#59 = VECTOR ( 'NONE', #301, 1000.000000000000000 ) ;
#60 = PRODUCT_DEFINITION_FORMATION_WITH_SPECIFIED_SOURCE ( 'LIBOVOLNÝ', '', #176, .NOT_KNOWN. ) ;
#61 = CARTESIAN_POINT ( 'NONE',  ( 1.750000000000000222, 2.143131898507868544E-16, 103.0000000000000142 ) ) ;
#62 = ORIENTED_EDGE ( 'NONE', *, *, #252, .T. ) ;
#63 = DIRECTION ( 'NONE',  ( 1.000000000000000000, 0.000000000000000000, 0.000000000000000000 ) ) ;
#64 = CYLINDRICAL_SURFACE ( 'NONE', #177, 3.500000000000000444 ) ;
#65 = APPLICATION_CONTEXT ( 'configuration controlled 3d designs of mechanical parts and assemblies' ) ;
#66 = DIRECTION ( 'NONE',  ( 1.000000000000000000, 0.000000000000000000, 0.000000000000000000 ) ) ;
#67 = CC_DESIGN_PERSON_AND_ORGANIZATION_ASSIGNMENT ( #306, #262, ( #82 ) ) ;
#68 = VERTEX_POINT ( 'NONE', #223 ) ;
#69 = DIRECTION ( 'NONE',  ( 1.000000000000000000, 0.000000000000000000, -0.000000000000000000 ) ) ;
#70 = AXIS2_PLACEMENT_3D ( 'NONE', #75, #121, #72 ) ;
#71 = DATE_AND_TIME ( #118, #130 ) ;
#72 = DIRECTION ( 'NONE',  ( 1.000000000000000000, 0.000000000000000000, 0.000000000000000000 ) ) ;
#73 = SECURITY_CLASSIFICATION_LEVEL ( 'unclassified' ) ;
#74 = PERSON_AND_ORGANIZATION_ROLE ( 'creator' ) ;
#75 = CARTESIAN_POINT ( 'NONE',  ( 0.000000000000000000, 0.000000000000000000, 0.000000000000000000 ) ) ;
#76 = ADVANCED_FACE ( 'NONE', ( #57 ), #81, .F. ) ;
#77 = DIRECTION ( 'NONE',  ( -1.000000000000000000, 1.224646799147353207E-16, 0.000000000000000000 ) ) ;
#78 = ADVANCED_FACE ( 'NONE', ( #201, #295 ), #175, .T. ) ;
#79 = CARTESIAN_POINT ( 'NONE',  ( 0.000000000000000000, 0.000000000000000000, 3.199999999999994404 ) ) ;
#80 = DIRECTION ( 'NONE',  ( 1.000000000000000000, 0.000000000000000000, 0.000000000000000000 ) ) ;
#81 = TOROIDAL_SURFACE ( 'NONE', #129, 1.950000000000000400, 0.2000000000000000111 ) ;
#82 = SECURITY_CLASSIFICATION ( '', '', #73 ) ;
#83 = CARTESIAN_POINT ( 'NONE',  ( 1.950000000000000400, 0.000000000000000000, 3.199999999999994404 ) ) ;
#84 = EDGE_CURVE ( 'NONE', #17, #15, #107, .T. ) ;
#85 = CARTESIAN_POINT ( 'NONE',  ( 1.750000000000000222, 2.143131898507868544E-16, 103.0000000000000142 ) ) ;
#86 = DIRECTION ( 'NONE',  ( -0.000000000000000000, -0.000000000000000000, -1.000000000000000000 ) ) ;
#87 = CIRCLE ( 'NONE', #263, 3.500000000000000444 ) ;
#88 = FACE_OUTER_BOUND ( 'NONE', #197, .T. ) ;
#89 = APPROVAL_PERSON_ORGANIZATION ( #265, #117, #283 ) ;
#90 = DIRECTION ( 'NONE',  ( 0.000000000000000000, 0.000000000000000000, 1.000000000000000000 ) ) ;
#91 = CC_DESIGN_PERSON_AND_ORGANIZATION_ASSIGNMENT ( #284, #74, ( #60 ) ) ;
#92 = CARTESIAN_POINT ( 'NONE',  ( 0.000000000000000000, 0.000000000000000000, 3.000000000000000000 ) ) ;
#93 = EDGE_LOOP ( 'NONE', ( #127, #243 ) ) ;
#94 = PERSON_AND_ORGANIZATION ( #248, #245 ) ;
#95 = ADVANCED_FACE ( 'NONE', ( #44 ), #181, .T. ) ;
#96 = APPROVAL_ROLE ( '' ) ;
#97 = APPLICATION_CONTEXT ( 'configuration controlled 3d designs of mechanical parts and assemblies' ) ;
#98 = PERSON_AND_ORGANIZATION ( #248, #245 ) ;
#99 = ORIENTED_EDGE ( 'NONE', *, *, #196, .T. ) ;
#100 = EDGE_CURVE ( 'NONE', #31, #55, #188, .T. ) ;
#101 = ORIENTED_EDGE ( 'NONE', *, *, #192, .F. ) ;
#102 = DIRECTION ( 'NONE',  ( 1.000000000000000000, 0.000000000000000000, 0.000000000000000000 ) ) ;
#103 = AXIS2_PLACEMENT_3D ( 'NONE', #269, #198, #155 ) ;
#104 = DIRECTION ( 'NONE',  ( 1.224646799147353207E-16, 1.000000000000000000, -0.000000000000000000 ) ) ;
#105 = ORIENTED_EDGE ( 'NONE', *, *, #196, .F. ) ;
#106 = VERTEX_POINT ( 'NONE', #46 ) ;
#107 = CIRCLE ( 'NONE', #16, 1.950000000000000400 ) ;
#108 = EDGE_LOOP ( 'NONE', ( #43, #184, #2, #101 ) ) ;
#109 = DIRECTION ( 'NONE',  ( 0.000000000000000000, 0.000000000000000000, 1.000000000000000000 ) ) ;
#110 = CARTESIAN_POINT ( 'NONE',  ( -1.750000000000000222, 0.000000000000000000, 103.0000000000000142 ) ) ;
#111 = AXIS2_PLACEMENT_3D ( 'NONE', #160, #23, #164 ) ;
#112 = EDGE_CURVE ( 'NONE', #106, #68, #220, .T. ) ;
#113 =( LENGTH_UNIT ( ) NAMED_UNIT ( * ) SI_UNIT ( .MILLI., .METRE. ) );
#114 = EDGE_LOOP ( 'NONE', ( #218, #287, #120, #302 ) ) ;
#115 = CARTESIAN_POINT ( 'NONE',  ( -3.500000000000000444, 0.000000000000000000, 3.000000000000000000 ) ) ;
#116 = CARTESIAN_POINT ( 'NONE',  ( -1.750000000000000222, 0.000000000000000000, 3.199999999999994404 ) ) ;
#117 = APPROVAL ( #1, 'NEURÈENÝ' ) ;
#118 = CALENDAR_DATE ( 2022, 7, 7 ) ;
#119 = PERSON_AND_ORGANIZATION_ROLE ( 'design_owner' ) ;
#120 = ORIENTED_EDGE ( 'NONE', *, *, #192, .T. ) ;
#121 = DIRECTION ( 'NONE',  ( 0.000000000000000000, 0.000000000000000000, 1.000000000000000000 ) ) ;
#122 = EDGE_CURVE ( 'NONE', #55, #186, #236, .T. ) ;
#123 = LOCAL_TIME ( 14, 53, 18.00000000000000000, #191 ) ;
#124 = APPROVAL_DATE_TIME ( #165, #178 ) ;
#125 = ORIENTED_EDGE ( 'NONE', *, *, #51, .T. ) ;
#126 = CC_DESIGN_PERSON_AND_ORGANIZATION_ASSIGNMENT ( #94, #213, ( #60 ) ) ;
#127 = ORIENTED_EDGE ( 'NONE', *, *, #84, .T. ) ;
#128 = AXIS2_PLACEMENT_3D ( 'NONE', #162, #257, #227 ) ;
#129 = AXIS2_PLACEMENT_3D ( 'NONE', #79, #174, #80 ) ;
#130 = LOCAL_TIME ( 14, 53, 18.00000000000000000, #195 ) ;
#131 = DIRECTION ( 'NONE',  ( 1.000000000000000000, 0.000000000000000000, 0.000000000000000000 ) ) ;
#132 = DIRECTION ( 'NONE',  ( 1.000000000000000000, 0.000000000000000000, 0.000000000000000000 ) ) ;
#133 = EDGE_CURVE ( 'NONE', #15, #17, #54, .T. ) ;
#134 = PLANE ( 'NONE',  #25 ) ;
#135 = PLANE ( 'NONE',  #202 ) ;
#136 = LINE ( 'NONE', #39, #267 ) ;
#137 = CC_DESIGN_DATE_AND_TIME_ASSIGNMENT ( #239, #26, ( #82 ) ) ;
#138 = DIRECTION ( 'NONE',  ( -1.000000000000000000, 0.000000000000000000, 0.000000000000000000 ) ) ;
#139 = LINE ( 'NONE', #110, #59 ) ;
#140 = VERTEX_POINT ( 'NONE', #116 ) ;
#141 = EDGE_CURVE ( 'NONE', #68, #106, #32, .T. ) ;
#142 = CIRCLE ( 'NONE', #208, 1.750000000000000222 ) ;
#143 = CALENDAR_DATE ( 2022, 7, 7 ) ;
#144 = APPROVAL_ROLE ( '' ) ;
#145 = APPLICATION_PROTOCOL_DEFINITION ( 'international standard', 'config_control_design', 1994, #97 ) ;
#146 = PERSON_AND_ORGANIZATION_ROLE ( 'creator' ) ;
#147 = ORIENTED_EDGE ( 'NONE', *, *, #58, .T. ) ;
#148 = LOCAL_TIME ( 14, 53, 18.00000000000000000, #49 ) ;
#149 = CC_DESIGN_PERSON_AND_ORGANIZATION_ASSIGNMENT ( #98, #146, ( #277 ) ) ;
#150 = EDGE_LOOP ( 'NONE', ( #34, #29 ) ) ;
#151 = DIRECTION ( 'NONE',  ( 0.000000000000000000, 0.000000000000000000, 1.000000000000000000 ) ) ;
#152 = DIRECTION ( 'NONE',  ( -1.000000000000000000, 0.000000000000000000, 0.000000000000000000 ) ) ;
#153 = VECTOR ( 'NONE', #86, 1000.000000000000000 ) ;
#154 = CIRCLE ( 'NONE', #3, 3.500000000000000444 ) ;
#155 = DIRECTION ( 'NONE',  ( 1.000000000000000000, 0.000000000000000000, 0.000000000000000000 ) ) ;
#156 = CARTESIAN_POINT ( 'NONE',  ( 3.500000000000000444, 4.286263797015737088E-16, 3.000000000000000000 ) ) ;
#157 = DIRECTION ( 'NONE',  ( -0.000000000000000000, -0.000000000000000000, -1.000000000000000000 ) ) ;
#158 = AXIS2_PLACEMENT_3D ( 'NONE', #83, #219, #247 ) ;
#159 = CIRCLE ( 'NONE', #193, 1.750000000000000222 ) ;
#160 = CARTESIAN_POINT ( 'NONE',  ( 0.000000000000000000, 0.000000000000000000, 3.000000000000000000 ) ) ;
#161 = EDGE_CURVE ( 'NONE', #14, #68, #180, .T. ) ;
#162 = CARTESIAN_POINT ( 'NONE',  ( 0.000000000000000000, 0.000000000000000000, 0.000000000000000000 ) ) ;
#163 = EDGE_CURVE ( 'NONE', #140, #186, #159, .T. ) ;
#164 = DIRECTION ( 'NONE',  ( 1.000000000000000000, 0.000000000000000000, 0.000000000000000000 ) ) ;
#165 = DATE_AND_TIME ( #246, #232 ) ;
#166 = CALENDAR_DATE ( 2022, 7, 7 ) ;
#167 = APPROVAL_PERSON_ORGANIZATION ( #30, #178, #144 ) ;
#168 = MECHANICAL_CONTEXT ( 'NONE', #65, 'mechanical' ) ;
#169 = EDGE_LOOP ( 'NONE', ( #260, #258 ) ) ;
#170 = DATE_TIME_ROLE ( 'creation_date' ) ;
#171 = APPROVAL ( #307, 'NEURÈENÝ' ) ;
#172 = EDGE_LOOP ( 'NONE', ( #222, #286, #7, #5 ) ) ;
#173 = CARTESIAN_POINT ( 'NONE',  ( 0.000000000000000000, 0.000000000000000000, 3.000000000000000000 ) ) ;
#174 = DIRECTION ( 'NONE',  ( 0.000000000000000000, 0.000000000000000000, 1.000000000000000000 ) ) ;
#175 = PLANE ( 'NONE',  #244 ) ;
#176 = PRODUCT ( 'be8a', 'be8a', '', ( #168 ) ) ;
#177 = AXIS2_PLACEMENT_3D ( 'NONE', #92, #185, #276 ) ;
#178 = APPROVAL ( #190, 'NEURÈENÝ' ) ;
#179 = ORIENTED_EDGE ( 'NONE', *, *, #112, .T. ) ;
#180 = LINE ( 'NONE', #234, #21 ) ;
#181 = CYLINDRICAL_SURFACE ( 'NONE', #215, 1.750000000000000222 ) ;
#182 = DIRECTION ( 'NONE',  ( 0.000000000000000000, 0.000000000000000000, 1.000000000000000000 ) ) ;
#183 = FACE_OUTER_BOUND ( 'NONE', #108, .T. ) ;
#184 = ORIENTED_EDGE ( 'NONE', *, *, #122, .T. ) ;
#185 = DIRECTION ( 'NONE',  ( -0.000000000000000000, -0.000000000000000000, -1.000000000000000000 ) ) ;
#186 = VERTEX_POINT ( 'NONE', #226 ) ;
#187 = CIRCLE ( 'NONE', #103, 1.750000000000000222 ) ;
#188 = CIRCLE ( 'NONE', #249, 1.750000000000000222 ) ;
#189 = CALENDAR_DATE ( 2022, 7, 7 ) ;
#190 = APPROVAL_STATUS ( 'not_yet_approved' ) ;
#191 = COORDINATED_UNIVERSAL_TIME_OFFSET ( 1, 0, .AHEAD. ) ;
#192 = EDGE_CURVE ( 'NONE', #31, #140, #139, .T. ) ;
#193 = AXIS2_PLACEMENT_3D ( 'NONE', #274, #90, #20 ) ;
#194 = EDGE_LOOP ( 'NONE', ( #285, #125, #279, #47 ) ) ;
#195 = COORDINATED_UNIVERSAL_TIME_OFFSET ( 1, 0, .AHEAD. ) ;
#196 = EDGE_CURVE ( 'NONE', #268, #14, #87, .T. ) ;
#197 = EDGE_LOOP ( 'NONE', ( #53, #217, #237, #22 ) ) ;
#198 = DIRECTION ( 'NONE',  ( 0.000000000000000000, 0.000000000000000000, 1.000000000000000000 ) ) ;
#199 = CARTESIAN_POINT ( 'NONE',  ( 0.000000000000000000, 0.000000000000000000, 3.000000000000000000 ) ) ;
#200 = DIRECTION ( 'NONE',  ( 0.000000000000000000, 0.000000000000000000, 1.000000000000000000 ) ) ;
#201 = FACE_BOUND ( 'NONE', #93, .T. ) ;
#202 = AXIS2_PLACEMENT_3D ( 'NONE', #18, #109, #69 ) ;
#203 = CC_DESIGN_APPROVAL ( #117, ( #277 ) ) ;
#204 = CARTESIAN_POINT ( 'NONE',  ( 0.000000000000000000, 0.000000000000000000, 3.000000000000000000 ) ) ;
#205 = CC_DESIGN_PERSON_AND_ORGANIZATION_ASSIGNMENT ( #216, #119, ( #176 ) ) ;
#206 = FACE_OUTER_BOUND ( 'NONE', #194, .T. ) ;
#207 = DIRECTION ( 'NONE',  ( -1.000000000000000000, 0.000000000000000000, 0.000000000000000000 ) ) ;
#208 = AXIS2_PLACEMENT_3D ( 'NONE', #293, #296, #102 ) ;
#209 = DIRECTION ( 'NONE',  ( 0.000000000000000000, 0.000000000000000000, 1.000000000000000000 ) ) ;
#210 = CARTESIAN_POINT ( 'NONE',  ( 0.000000000000000000, 0.000000000000000000, 3.000000000000000000 ) ) ;
#211 = CARTESIAN_POINT ( 'NONE',  ( 0.000000000000000000, 0.000000000000000000, 103.0000000000000142 ) ) ;
#212 = CIRCLE ( 'NONE', #158, 0.2000000000000000944 ) ;
#213 = PERSON_AND_ORGANIZATION_ROLE ( 'design_supplier' ) ;
#214 = PERSON_AND_ORGANIZATION ( #248, #245 ) ;
#215 = AXIS2_PLACEMENT_3D ( 'NONE', #211, #42, #207 ) ;
#216 = PERSON_AND_ORGANIZATION ( #248, #245 ) ;
#217 = ORIENTED_EDGE ( 'NONE', *, *, #161, .T. ) ;
#218 = ORIENTED_EDGE ( 'NONE', *, *, #122, .F. ) ;
#219 = DIRECTION ( 'NONE',  ( 0.000000000000000000, -1.000000000000000000, 0.000000000000000000 ) ) ;
#220 = CIRCLE ( 'NONE', #288, 3.500000000000000444 ) ;
#221 = PRODUCT_RELATED_PRODUCT_CATEGORY ( 'detail', '', ( #176 ) ) ;
#222 = ORIENTED_EDGE ( 'NONE', *, *, #51, .F. ) ;
#223 = CARTESIAN_POINT ( 'NONE',  ( 3.500000000000000444, 4.286263797015737088E-16, 0.000000000000000000 ) ) ;
#224 = CYLINDRICAL_SURFACE ( 'NONE', #10, 3.500000000000000444 ) ;
#225 = CC_DESIGN_DATE_AND_TIME_ASSIGNMENT ( #71, #170, ( #277 ) ) ;
#226 = CARTESIAN_POINT ( 'NONE',  ( 1.750000000000000222, 2.143131898507868544E-16, 3.199999999999994404 ) ) ;
#227 = DIRECTION ( 'NONE',  ( 1.000000000000000000, 0.000000000000000000, 0.000000000000000000 ) ) ;
#228 = DIRECTION ( 'NONE',  ( -0.000000000000000000, -0.000000000000000000, -1.000000000000000000 ) ) ;
#229 = TOROIDAL_SURFACE ( 'NONE', #4, 1.950000000000000400, 0.2000000000000000111 ) ;
#230 = CIRCLE ( 'NONE', #11, 0.2000000000000000944 ) ;
#231 = EDGE_LOOP ( 'NONE', ( #99, #147 ) ) ;
#232 = LOCAL_TIME ( 14, 53, 18.00000000000000000, #52 ) ;
#233 = ADVANCED_FACE ( 'NONE', ( #183 ), #299, .T. ) ;
#234 = CARTESIAN_POINT ( 'NONE',  ( 3.500000000000000444, 4.286263797015737088E-16, 3.000000000000000000 ) ) ;
#235 = EDGE_LOOP ( 'NONE', ( #13, #105, #62, #179 ) ) ;
#236 = LINE ( 'NONE', #85, #153 ) ;
#237 = ORIENTED_EDGE ( 'NONE', *, *, #141, .T. ) ;
#238 = APPLICATION_PROTOCOL_DEFINITION ( 'international standard', 'config_control_design', 1994, #65 ) ;
#239 = DATE_AND_TIME ( #143, #148 ) ;
#240 = APPROVAL_DATE_TIME ( #264, #171 ) ;
#241 = MANIFOLD_SOLID_BREP ( 'Zaoblit1', #305 ) ;
#242 = COORDINATED_UNIVERSAL_TIME_OFFSET ( 1, 0, .AHEAD. ) ;
#243 = ORIENTED_EDGE ( 'NONE', *, *, #133, .T. ) ;
#244 = AXIS2_PLACEMENT_3D ( 'NONE', #199, #270, #272 ) ;
#245 = ORGANIZATION ( 'NEURÈENÝ', 'NEURÈENÝ', '' ) ;
#246 = CALENDAR_DATE ( 2022, 7, 7 ) ;
#247 = DIRECTION ( 'NONE',  ( 0.000000000000000000, 0.000000000000000000, -1.000000000000000000 ) ) ;
#248 = PERSON ( 'NEURÈENÝ', 'NEURÈENÝ', 'NEURÈENÝ', ('NEURÈENÝ'), ('NEURÈENÝ'), ('NEURÈENÝ') ) ;
#249 = AXIS2_PLACEMENT_3D ( 'NONE', #256, #259, #63 ) ;
#250 = FACE_OUTER_BOUND ( 'NONE', #235, .T. ) ;
#251 = CARTESIAN_POINT ( 'NONE',  ( 0.000000000000000000, 0.000000000000000000, 3.000000000000000000 ) ) ;
#252 = EDGE_CURVE ( 'NONE', #268, #106, #136, .T. ) ;
#253 = DIRECTION ( 'NONE',  ( 1.000000000000000000, 0.000000000000000000, 0.000000000000000000 ) ) ;
#254 = CC_DESIGN_SECURITY_CLASSIFICATION ( #82, ( #60 ) ) ;
#255 = DIRECTION ( 'NONE',  ( 0.000000000000000000, 0.000000000000000000, 1.000000000000000000 ) ) ;
#256 = CARTESIAN_POINT ( 'NONE',  ( 0.000000000000000000, 0.000000000000000000, 103.0000000000000142 ) ) ;
#257 = DIRECTION ( 'NONE',  ( 0.000000000000000000, 0.000000000000000000, 1.000000000000000000 ) ) ;
#258 = ORIENTED_EDGE ( 'NONE', *, *, #141, .F. ) ;
#259 = DIRECTION ( 'NONE',  ( 0.000000000000000000, 0.000000000000000000, 1.000000000000000000 ) ) ;
#260 = ORIENTED_EDGE ( 'NONE', *, *, #112, .F. ) ;
#261 =( NAMED_UNIT ( * ) PLANE_ANGLE_UNIT ( ) SI_UNIT ( $, .RADIAN. ) );
#262 = PERSON_AND_ORGANIZATION_ROLE ( 'classification_officer' ) ;
#263 = AXIS2_PLACEMENT_3D ( 'NONE', #210, #255, #253 ) ;
#264 = DATE_AND_TIME ( #166, #123 ) ;
#265 = PERSON_AND_ORGANIZATION ( #248, #245 ) ;
#266 = DESIGN_CONTEXT ( 'detailed design', #97, 'design' ) ;
#267 = VECTOR ( 'NONE', #228, 1000.000000000000000 ) ;
#268 = VERTEX_POINT ( 'NONE', #115 ) ;
#269 = CARTESIAN_POINT ( 'NONE',  ( 0.000000000000000000, 0.000000000000000000, 3.199999999999994404 ) ) ;
#270 = DIRECTION ( 'NONE',  ( 0.000000000000000000, 0.000000000000000000, 1.000000000000000000 ) ) ;
#271 = AXIS2_PLACEMENT_3D ( 'NONE', #41, #278, #138 ) ;
#272 = DIRECTION ( 'NONE',  ( 1.000000000000000000, 0.000000000000000000, -0.000000000000000000 ) ) ;
#273 = DIRECTION ( 'NONE',  ( 1.000000000000000000, 0.000000000000000000, -0.000000000000000000 ) ) ;
#274 = CARTESIAN_POINT ( 'NONE',  ( 0.000000000000000000, 0.000000000000000000, 3.199999999999994404 ) ) ;
#275 = CARTESIAN_POINT ( 'NONE',  ( 0.000000000000000000, 0.000000000000000000, 3.199999999999994404 ) ) ;
#276 = DIRECTION ( 'NONE',  ( -1.000000000000000000, 0.000000000000000000, 0.000000000000000000 ) ) ;
#277 = PRODUCT_DEFINITION ( 'NEZNÁMÝ', '', #60, #266 ) ;
#278 = DIRECTION ( 'NONE',  ( -0.000000000000000000, -0.000000000000000000, -1.000000000000000000 ) ) ;
#279 = ORIENTED_EDGE ( 'NONE', *, *, #84, .F. ) ;
#280 = FACE_OUTER_BOUND ( 'NONE', #169, .T. ) ;
#281 = ADVANCED_FACE ( 'NONE', ( #280 ), #135, .F. ) ;
#282 = DATE_AND_TIME ( #189, #300 ) ;
#283 = APPROVAL_ROLE ( '' ) ;
#284 = PERSON_AND_ORGANIZATION ( #248, #245 ) ;
#285 = ORIENTED_EDGE ( 'NONE', *, *, #163, .F. ) ;
#286 = ORIENTED_EDGE ( 'NONE', *, *, #45, .F. ) ;
#287 = ORIENTED_EDGE ( 'NONE', *, *, #100, .F. ) ;
#288 = AXIS2_PLACEMENT_3D ( 'NONE', #19, #209, #66 ) ;
#289 = CC_DESIGN_APPROVAL ( #178, ( #60 ) ) ;
#290 = CARTESIAN_POINT ( 'NONE',  ( -1.950000000000000400, 2.388061258337339136E-16, 3.199999999999994404 ) ) ;
#291 = CARTESIAN_POINT ( 'NONE',  ( -1.750000000000000222, 0.000000000000000000, 103.0000000000000142 ) ) ;
#292 = PRODUCT_DEFINITION_SHAPE ( 'NONE', 'NONE',  #277 ) ;
#293 = CARTESIAN_POINT ( 'NONE',  ( 0.000000000000000000, 0.000000000000000000, 103.0000000000000142 ) ) ;
#294 =( GEOMETRIC_REPRESENTATION_CONTEXT ( 3 ) GLOBAL_UNCERTAINTY_ASSIGNED_CONTEXT ( ( #6 ) ) GLOBAL_UNIT_ASSIGNED_CONTEXT ( ( #113, #261, #48 ) ) REPRESENTATION_CONTEXT ( 'NONE', 'WORKASPACE' ) );
#295 = FACE_OUTER_BOUND ( 'NONE', #231, .T. ) ;
#296 = DIRECTION ( 'NONE',  ( 0.000000000000000000, 0.000000000000000000, 1.000000000000000000 ) ) ;
#297 = ADVANCED_BREP_SHAPE_REPRESENTATION ( 'be8a', ( #241, #70 ), #294 ) ;
#298 = ADVANCED_FACE ( 'NONE', ( #206 ), #229, .F. ) ;
#299 = CYLINDRICAL_SURFACE ( 'NONE', #271, 1.750000000000000222 ) ;
#300 = LOCAL_TIME ( 14, 53, 18.00000000000000000, #242 ) ;
#301 = DIRECTION ( 'NONE',  ( -0.000000000000000000, -0.000000000000000000, -1.000000000000000000 ) ) ;
#302 = ORIENTED_EDGE ( 'NONE', *, *, #163, .T. ) ;
#303 = DIRECTION ( 'NONE',  ( 1.000000000000000000, 0.000000000000000000, 0.000000000000000000 ) ) ;
#304 = ADVANCED_FACE ( 'NONE', ( #88 ), #64, .T. ) ;
#305 = CLOSED_SHELL ( 'NONE', ( #298, #233, #304, #33, #78, #281, #95, #27, #76 ) ) ;
#306 = PERSON_AND_ORGANIZATION ( #248, #245 ) ;
#307 = APPROVAL_STATUS ( 'not_yet_approved' ) ;
ENDSEC;
END-ISO-10303-21;
