ISO-10303-21;
HEADER;
FILE_DESCRIPTION (( 'STEP AP203' ),
    '1' );
FILE_NAME ('4082.STEP',
    '2022-07-07T12:42:35',
    ( '' ),
    ( '' ),
    'SwSTEP 2.0',
    'SolidWorks 2019',
    '' );
FILE_SCHEMA (( 'CONFIG_CONTROL_DESIGN' ));
ENDSEC;

DATA;
#1 = DIRECTION ( 'NONE',  ( 0.000000000000000000, 0.000000000000000000, 1.000000000000000000 ) ) ;
#2 = AXIS2_PLACEMENT_3D ( 'NONE', #27, #1, #307 ) ;
#3 = CARTESIAN_POINT ( 'NONE',  ( 0.000000000000000000, 0.000000000000000000, 5.000000000000000000 ) ) ;
#4 = CC_DESIGN_PERSON_AND_ORGANIZATION_ASSIGNMENT ( #70, #209, ( #217 ) ) ;
#5 = CARTESIAN_POINT ( 'NONE',  ( 0.000000000000000000, 0.000000000000000000, 130.0000000000000000 ) ) ;
#6 = AXIS2_PLACEMENT_3D ( 'NONE', #223, #109, #306 ) ;
#7 = CC_DESIGN_APPROVAL ( #305, ( #189 ) ) ;
#8 = DATE_TIME_ROLE ( 'creation_date' ) ;
#9 = ORIENTED_EDGE ( 'NONE', *, *, #56, .T. ) ;
#10 = CIRCLE ( 'NONE', #105, 3.000000000000000444 ) ;
#11 =( NAMED_UNIT ( * ) PLANE_ANGLE_UNIT ( ) SI_UNIT ( $, .RADIAN. ) );
#12 = ORIENTED_EDGE ( 'NONE', *, *, #66, .F. ) ;
#13 = APPROVAL ( #255, 'NEURÈENÝ' ) ;
#14 = SHAPE_DEFINITION_REPRESENTATION ( #190, #117 ) ;
#15 = ORIENTED_EDGE ( 'NONE', *, *, #192, .F. ) ;
#16 = CLOSED_SHELL ( 'NONE', ( #21, #102, #178, #159, #301, #183, #263, #267, #257 ) ) ;
#17 = EDGE_LOOP ( 'NONE', ( #95, #229 ) ) ;
#18 = TOROIDAL_SURFACE ( 'NONE', #2, 3.200000000000000622, 0.2000000000000000111 ) ;
#19 = APPROVAL_DATE_TIME ( #46, #249 ) ;
#20 = ORIENTED_EDGE ( 'NONE', *, *, #56, .F. ) ;
#21 = ADVANCED_FACE ( 'NONE', ( #191 ), #285, .F. ) ;
#22 = DIRECTION ( 'NONE',  ( -0.000000000000000000, -0.000000000000000000, -1.000000000000000000 ) ) ;
#23 = ORIENTED_EDGE ( 'NONE', *, *, #127, .F. ) ;
#24 = CARTESIAN_POINT ( 'NONE',  ( 0.000000000000000000, 0.000000000000000000, 0.000000000000000000 ) ) ;
#25 = LOCAL_TIME ( 14, 42, 35.00000000000000000, #291 ) ;
#26 = EDGE_CURVE ( 'NONE', #283, #252, #10, .T. ) ;
#27 = CARTESIAN_POINT ( 'NONE',  ( 0.000000000000000000, 0.000000000000000000, 5.199999999999996625 ) ) ;
#28 = PLANE ( 'NONE',  #80 ) ;
#29 = CIRCLE ( 'NONE', #45, 0.1999999999999996503 ) ;
#30 = DIRECTION ( 'NONE',  ( -0.000000000000000000, -0.000000000000000000, -1.000000000000000000 ) ) ;
#31 = CARTESIAN_POINT ( 'NONE',  ( 0.000000000000000000, 0.000000000000000000, 5.000000000000000000 ) ) ;
#32 = COORDINATED_UNIVERSAL_TIME_OFFSET ( 1, 0, .AHEAD. ) ;
#33 = ORIENTED_EDGE ( 'NONE', *, *, #138, .F. ) ;
#34 = AXIS2_PLACEMENT_3D ( 'NONE', #24, #108, #134 ) ;
#35 = CC_DESIGN_PERSON_AND_ORGANIZATION_ASSIGNMENT ( #162, #254, ( #189 ) ) ;
#36 = APPROVAL_STATUS ( 'not_yet_approved' ) ;
#37 = APPLICATION_PROTOCOL_DEFINITION ( 'international standard', 'config_control_design', 1994, #150 ) ;
#38 = EDGE_LOOP ( 'NONE', ( #124, #23, #227, #182 ) ) ;
#39 = PERSON_AND_ORGANIZATION ( #300, #97 ) ;
#40 = EDGE_CURVE ( 'NONE', #252, #76, #29, .T. ) ;
#41 = CIRCLE ( 'NONE', #157, 3.000000000000000444 ) ;
#42 = PERSON_AND_ORGANIZATION ( #300, #97 ) ;
#43 = VERTEX_POINT ( 'NONE', #73 ) ;
#44 = ORIENTED_EDGE ( 'NONE', *, *, #40, .F. ) ;
#45 = AXIS2_PLACEMENT_3D ( 'NONE', #213, #149, #173 ) ;
#46 = DATE_AND_TIME ( #125, #53 ) ;
#47 = PRODUCT_RELATED_PRODUCT_CATEGORY ( 'detail', '', ( #260 ) ) ;
#48 = DIRECTION ( 'NONE',  ( 1.000000000000000000, 0.000000000000000000, 0.000000000000000000 ) ) ;
#49 = LOCAL_TIME ( 14, 42, 35.00000000000000000, #118 ) ;
#50 = DIRECTION ( 'NONE',  ( 1.000000000000000000, 0.000000000000000000, 0.000000000000000000 ) ) ;
#51 = ORIENTED_EDGE ( 'NONE', *, *, #243, .T. ) ;
#52 = CARTESIAN_POINT ( 'NONE',  ( -6.000000000000000888, 0.000000000000000000, 5.000000000000000000 ) ) ;
#53 = LOCAL_TIME ( 14, 42, 35.00000000000000000, #231 ) ;
#54 = FACE_OUTER_BOUND ( 'NONE', #120, .T. ) ;
#55 = PLANE ( 'NONE',  #6 ) ;
#56 = EDGE_CURVE ( 'NONE', #273, #258, #221, .T. ) ;
#57 = DIRECTION ( 'NONE',  ( -0.000000000000000000, -0.000000000000000000, -1.000000000000000000 ) ) ;
#58 = DIRECTION ( 'NONE',  ( -1.000000000000000000, 0.000000000000000000, 0.000000000000000000 ) ) ;
#59 = DATE_AND_TIME ( #181, #25 ) ;
#60 = EDGE_CURVE ( 'NONE', #283, #143, #270, .T. ) ;
#61 = PERSON_AND_ORGANIZATION ( #300, #97 ) ;
#62 = AXIS2_PLACEMENT_3D ( 'NONE', #186, #277, #146 ) ;
#63 = PERSON_AND_ORGANIZATION_ROLE ( 'creator' ) ;
#64 = EDGE_LOOP ( 'NONE', ( #9, #256 ) ) ;
#65 = VECTOR ( 'NONE', #152, 1000.000000000000000 ) ;
#66 = EDGE_CURVE ( 'NONE', #258, #273, #215, .T. ) ;
#67 = AXIS2_PLACEMENT_3D ( 'NONE', #262, #171, #48 ) ;
#68 = DIRECTION ( 'NONE',  ( 0.000000000000000000, 0.000000000000000000, 1.000000000000000000 ) ) ;
#69 = CIRCLE ( 'NONE', #163, 3.200000000000000622 ) ;
#70 = PERSON_AND_ORGANIZATION ( #300, #97 ) ;
#71 = ORIENTED_EDGE ( 'NONE', *, *, #144, .T. ) ;
#72 = PRODUCT_DEFINITION ( 'NEZNÁMÝ', '', #189, #169 ) ;
#73 = CARTESIAN_POINT ( 'NONE',  ( 6.000000000000000888, 7.347880794884120722E-16, 0.000000000000000000 ) ) ;
#74 = APPROVAL_STATUS ( 'not_yet_approved' ) ;
#75 = EDGE_LOOP ( 'NONE', ( #208, #121 ) ) ;
#76 = VERTEX_POINT ( 'NONE', #234 ) ;
#77 = DIRECTION ( 'NONE',  ( -0.000000000000000000, -0.000000000000000000, -1.000000000000000000 ) ) ;
#78 = EDGE_CURVE ( 'NONE', #295, #252, #194, .T. ) ;
#79 = CARTESIAN_POINT ( 'NONE',  ( 6.000000000000000888, 7.347880794884120722E-16, 5.000000000000000000 ) ) ;
#80 = AXIS2_PLACEMENT_3D ( 'NONE', #5, #276, #91 ) ;
#81 = DIRECTION ( 'NONE',  ( 1.000000000000000000, 0.000000000000000000, 0.000000000000000000 ) ) ;
#82 = EDGE_CURVE ( 'NONE', #252, #283, #111, .T. ) ;
#83 = DIRECTION ( 'NONE',  ( 0.000000000000000000, 0.000000000000000000, 1.000000000000000000 ) ) ;
#84 = CYLINDRICAL_SURFACE ( 'NONE', #101, 6.000000000000000888 ) ;
#85 = DIRECTION ( 'NONE',  ( 0.000000000000000000, 0.000000000000000000, 1.000000000000000000 ) ) ;
#86 = AXIS2_PLACEMENT_3D ( 'NONE', #176, #268, #155 ) ;
#87 = MECHANICAL_CONTEXT ( 'NONE', #150, 'mechanical' ) ;
#88 = EDGE_CURVE ( 'NONE', #232, #43, #151, .T. ) ;
#89 = DATE_AND_TIME ( #294, #180 ) ;
#90 = ORIENTED_EDGE ( 'NONE', *, *, #26, .F. ) ;
#91 = DIRECTION ( 'NONE',  ( 1.000000000000000000, 0.000000000000000000, -0.000000000000000000 ) ) ;
#92 = DIRECTION ( 'NONE',  ( 0.000000000000000000, 0.000000000000000000, 1.000000000000000000 ) ) ;
#93 = ORIENTED_EDGE ( 'NONE', *, *, #230, .T. ) ;
#94 = CIRCLE ( 'NONE', #292, 3.000000000000000444 ) ;
#95 = ORIENTED_EDGE ( 'NONE', *, *, #127, .T. ) ;
#96 = CC_DESIGN_DATE_AND_TIME_ASSIGNMENT ( #251, #8, ( #72 ) ) ;
#97 = ORGANIZATION ( 'NEURÈENÝ', 'NEURÈENÝ', '' ) ;
#98 = DIRECTION ( 'NONE',  ( -1.000000000000000000, 1.224646799147353207E-16, 0.000000000000000000 ) ) ;
#99 = ORIENTED_EDGE ( 'NONE', *, *, #168, .F. ) ;
#100 = ORIENTED_EDGE ( 'NONE', *, *, #60, .T. ) ;
#101 = AXIS2_PLACEMENT_3D ( 'NONE', #199, #77, #58 ) ;
#102 = ADVANCED_FACE ( 'NONE', ( #197 ), #246, .T. ) ;
#103 = LINE ( 'NONE', #284, #65 ) ;
#104 = CARTESIAN_POINT ( 'NONE',  ( 6.000000000000000888, 7.347880794884120722E-16, 5.000000000000000000 ) ) ;
#105 = AXIS2_PLACEMENT_3D ( 'NONE', #145, #68, #50 ) ;
#106 = FACE_OUTER_BOUND ( 'NONE', #38, .T. ) ;
#107 =( GEOMETRIC_REPRESENTATION_CONTEXT ( 3 ) GLOBAL_UNCERTAINTY_ASSIGNED_CONTEXT ( ( #165 ) ) GLOBAL_UNIT_ASSIGNED_CONTEXT ( ( #116, #11, #293 ) ) REPRESENTATION_CONTEXT ( 'NONE', 'WORKASPACE' ) );
#108 = DIRECTION ( 'NONE',  ( 0.000000000000000000, 0.000000000000000000, 1.000000000000000000 ) ) ;
#109 = DIRECTION ( 'NONE',  ( 0.000000000000000000, 0.000000000000000000, 1.000000000000000000 ) ) ;
#110 = APPROVAL_ROLE ( '' ) ;
#111 = CIRCLE ( 'NONE', #250, 3.000000000000000444 ) ;
#112 = FACE_BOUND ( 'NONE', #128, .T. ) ;
#113 = ORIENTED_EDGE ( 'NONE', *, *, #78, .T. ) ;
#114 = AXIS2_PLACEMENT_3D ( 'NONE', #3, #219, #289 ) ;
#115 = APPROVAL_ROLE ( '' ) ;
#116 =( LENGTH_UNIT ( ) NAMED_UNIT ( * ) SI_UNIT ( .MILLI., .METRE. ) );
#117 = ADVANCED_BREP_SHAPE_REPRESENTATION ( '4082', ( #147, #142 ), #107 ) ;
#118 = COORDINATED_UNIVERSAL_TIME_OFFSET ( 1, 0, .AHEAD. ) ;
#119 = CC_DESIGN_PERSON_AND_ORGANIZATION_ASSIGNMENT ( #225, #247, ( #72 ) ) ;
#120 = EDGE_LOOP ( 'NONE', ( #261, #20, #248, #216 ) ) ;
#121 = ORIENTED_EDGE ( 'NONE', *, *, #230, .F. ) ;
#122 = APPROVAL_PERSON_ORGANIZATION ( #296, #13, #110 ) ;
#123 = DATE_TIME_ROLE ( 'classification_date' ) ;
#124 = ORIENTED_EDGE ( 'NONE', *, *, #78, .F. ) ;
#125 = CALENDAR_DATE ( 2022, 7, 7 ) ;
#126 = CARTESIAN_POINT ( 'NONE',  ( 0.000000000000000000, 0.000000000000000000, 5.199999999999996625 ) ) ;
#127 = EDGE_CURVE ( 'NONE', #141, #295, #94, .T. ) ;
#128 = EDGE_LOOP ( 'NONE', ( #282, #71 ) ) ;
#129 = LINE ( 'NONE', #104, #278 ) ;
#130 = DIRECTION ( 'NONE',  ( 1.000000000000000000, 0.000000000000000000, 0.000000000000000000 ) ) ;
#131 = AXIS2_PLACEMENT_3D ( 'NONE', #233, #167, #211 ) ;
#132 = CARTESIAN_POINT ( 'NONE',  ( 3.000000000000000444, 3.673940397442060361E-16, 5.199999999999996625 ) ) ;
#133 = DIRECTION ( 'NONE',  ( -1.000000000000000000, 0.000000000000000000, 0.000000000000000000 ) ) ;
#134 = DIRECTION ( 'NONE',  ( 1.000000000000000000, 0.000000000000000000, 0.000000000000000000 ) ) ;
#135 = CALENDAR_DATE ( 2022, 7, 7 ) ;
#136 = FACE_OUTER_BOUND ( 'NONE', #64, .T. ) ;
#137 = CC_DESIGN_APPROVAL ( #249, ( #217 ) ) ;
#138 = EDGE_CURVE ( 'NONE', #76, #143, #69, .T. ) ;
#139 = EDGE_LOOP ( 'NONE', ( #297, #187, #210, #238 ) ) ;
#140 = PERSON_AND_ORGANIZATION_ROLE ( 'design_owner' ) ;
#141 = VERTEX_POINT ( 'NONE', #265 ) ;
#142 = AXIS2_PLACEMENT_3D ( 'NONE', #164, #92, #202 ) ;
#143 = VERTEX_POINT ( 'NONE', #245 ) ;
#144 = EDGE_CURVE ( 'NONE', #143, #76, #304, .T. ) ;
#145 = CARTESIAN_POINT ( 'NONE',  ( 0.000000000000000000, 0.000000000000000000, 5.199999999999996625 ) ) ;
#146 = DIRECTION ( 'NONE',  ( 1.000000000000000000, 0.000000000000000000, 0.000000000000000000 ) ) ;
#147 = MANIFOLD_SOLID_BREP ( 'Zaoblit1', #16 ) ;
#148 = CALENDAR_DATE ( 2022, 7, 7 ) ;
#149 = DIRECTION ( 'NONE',  ( 0.000000000000000000, -1.000000000000000000, 0.000000000000000000 ) ) ;
#150 = APPLICATION_CONTEXT ( 'configuration controlled 3d designs of mechanical parts and assemblies' ) ;
#151 = CIRCLE ( 'NONE', #34, 6.000000000000000888 ) ;
#152 = DIRECTION ( 'NONE',  ( -0.000000000000000000, -0.000000000000000000, -1.000000000000000000 ) ) ;
#153 = CC_DESIGN_PERSON_AND_ORGANIZATION_ASSIGNMENT ( #274, #63, ( #189 ) ) ;
#154 = CYLINDRICAL_SURFACE ( 'NONE', #241, 6.000000000000000888 ) ;
#155 = DIRECTION ( 'NONE',  ( -1.000000000000000000, 0.000000000000000000, 0.000000000000000000 ) ) ;
#156 = CARTESIAN_POINT ( 'NONE',  ( 0.000000000000000000, 0.000000000000000000, 5.000000000000000000 ) ) ;
#157 = AXIS2_PLACEMENT_3D ( 'NONE', #271, #83, #130 ) ;
#158 = DIRECTION ( 'NONE',  ( 1.000000000000000000, 0.000000000000000000, 0.000000000000000000 ) ) ;
#159 = ADVANCED_FACE ( 'NONE', ( #54 ), #154, .T. ) ;
#160 = APPROVAL_DATE_TIME ( #59, #13 ) ;
#161 = CARTESIAN_POINT ( 'NONE',  ( 3.000000000000000444, 3.673940397442060361E-16, 130.0000000000000000 ) ) ;
#162 = PERSON_AND_ORGANIZATION ( #300, #97 ) ;
#163 = AXIS2_PLACEMENT_3D ( 'NONE', #156, #220, #175 ) ;
#164 = CARTESIAN_POINT ( 'NONE',  ( 0.000000000000000000, 0.000000000000000000, 0.000000000000000000 ) ) ;
#165 = UNCERTAINTY_MEASURE_WITH_UNIT (LENGTH_MEASURE( 1.000000000000000082E-05 ), #116, 'distance_accuracy_value', 'NONE');
#166 = APPLICATION_CONTEXT ( 'configuration controlled 3d designs of mechanical parts and assemblies' ) ;
#167 = DIRECTION ( 'NONE',  ( 0.000000000000000000, 0.000000000000000000, 1.000000000000000000 ) ) ;
#168 = EDGE_CURVE ( 'NONE', #273, #232, #303, .T. ) ;
#169 = DESIGN_CONTEXT ( 'detailed design', #166, 'design' ) ;
#170 = EDGE_LOOP ( 'NONE', ( #90, #100, #33, #44 ) ) ;
#171 = DIRECTION ( 'NONE',  ( 0.000000000000000000, 0.000000000000000000, 1.000000000000000000 ) ) ;
#172 = EDGE_LOOP ( 'NONE', ( #15, #113, #259, #280 ) ) ;
#173 = DIRECTION ( 'NONE',  ( 0.000000000000000000, 0.000000000000000000, -1.000000000000000000 ) ) ;
#174 = DIRECTION ( 'NONE',  ( 0.000000000000000000, 0.000000000000000000, 1.000000000000000000 ) ) ;
#175 = DIRECTION ( 'NONE',  ( 1.000000000000000000, 0.000000000000000000, 0.000000000000000000 ) ) ;
#176 = CARTESIAN_POINT ( 'NONE',  ( 0.000000000000000000, 0.000000000000000000, 130.0000000000000000 ) ) ;
#177 = DIRECTION ( 'NONE',  ( -0.000000000000000000, -0.000000000000000000, -1.000000000000000000 ) ) ;
#178 = ADVANCED_FACE ( 'NONE', ( #201 ), #84, .T. ) ;
#179 = FACE_OUTER_BOUND ( 'NONE', #75, .T. ) ;
#180 = LOCAL_TIME ( 14, 42, 35.00000000000000000, #206 ) ;
#181 = CALENDAR_DATE ( 2022, 7, 7 ) ;
#182 = ORIENTED_EDGE ( 'NONE', *, *, #26, .T. ) ;
#183 = ADVANCED_FACE ( 'NONE', ( #179 ), #55, .F. ) ;
#184 = APPROVAL_DATE_TIME ( #89, #305 ) ;
#185 = CC_DESIGN_SECURITY_CLASSIFICATION ( #217, ( #189 ) ) ;
#186 = CARTESIAN_POINT ( 'NONE',  ( 0.000000000000000000, 0.000000000000000000, 5.199999999999996625 ) ) ;
#187 = ORIENTED_EDGE ( 'NONE', *, *, #82, .F. ) ;
#188 = APPROVAL_PERSON_ORGANIZATION ( #42, #249, #236 ) ;
#189 = PRODUCT_DEFINITION_FORMATION_WITH_SPECIFIED_SOURCE ( 'LIBOVOLNÝ', '', #260, .NOT_KNOWN. ) ;
#190 = PRODUCT_DEFINITION_SHAPE ( 'NONE', 'NONE',  #72 ) ;
#191 = FACE_OUTER_BOUND ( 'NONE', #170, .T. ) ;
#192 = EDGE_CURVE ( 'NONE', #295, #141, #41, .T. ) ;
#193 = SECURITY_CLASSIFICATION_LEVEL ( 'unclassified' ) ;
#194 = LINE ( 'NONE', #237, #239 ) ;
#195 = EDGE_LOOP ( 'NONE', ( #12, #51, #93, #99 ) ) ;
#196 = AXIS2_PLACEMENT_3D ( 'NONE', #240, #174, #81 ) ;
#197 = FACE_OUTER_BOUND ( 'NONE', #172, .T. ) ;
#198 = DIRECTION ( 'NONE',  ( -0.000000000000000000, -0.000000000000000000, -1.000000000000000000 ) ) ;
#199 = CARTESIAN_POINT ( 'NONE',  ( 0.000000000000000000, 0.000000000000000000, 5.000000000000000000 ) ) ;
#200 = DIRECTION ( 'NONE',  ( 0.000000000000000000, 0.000000000000000000, 1.000000000000000000 ) ) ;
#201 = FACE_OUTER_BOUND ( 'NONE', #195, .T. ) ;
#202 = DIRECTION ( 'NONE',  ( 1.000000000000000000, 0.000000000000000000, 0.000000000000000000 ) ) ;
#203 = AXIS2_PLACEMENT_3D ( 'NONE', #226, #85, #224 ) ;
#204 = PLANE ( 'NONE',  #203 ) ;
#205 = CC_DESIGN_PERSON_AND_ORGANIZATION_ASSIGNMENT ( #39, #140, ( #260 ) ) ;
#206 = COORDINATED_UNIVERSAL_TIME_OFFSET ( 1, 0, .AHEAD. ) ;
#207 = CARTESIAN_POINT ( 'NONE',  ( -3.000000000000000444, 0.000000000000000000, 5.199999999999996625 ) ) ;
#208 = ORIENTED_EDGE ( 'NONE', *, *, #88, .F. ) ;
#209 = PERSON_AND_ORGANIZATION_ROLE ( 'classification_officer' ) ;
#210 = ORIENTED_EDGE ( 'NONE', *, *, #40, .T. ) ;
#211 = DIRECTION ( 'NONE',  ( 1.000000000000000000, 0.000000000000000000, 0.000000000000000000 ) ) ;
#212 = CC_DESIGN_APPROVAL ( #13, ( #72 ) ) ;
#213 = CARTESIAN_POINT ( 'NONE',  ( 3.200000000000000622, 0.000000000000000000, 5.199999999999996625 ) ) ;
#214 = DIRECTION ( 'NONE',  ( 0.000000000000000000, 0.000000000000000000, 1.000000000000000000 ) ) ;
#215 = CIRCLE ( 'NONE', #67, 6.000000000000000888 ) ;
#216 = ORIENTED_EDGE ( 'NONE', *, *, #88, .T. ) ;
#217 = SECURITY_CLASSIFICATION ( '', '', #193 ) ;
#218 = EDGE_CURVE ( 'NONE', #141, #283, #103, .T. ) ;
#219 = DIRECTION ( 'NONE',  ( -0.000000000000000000, -0.000000000000000000, -1.000000000000000000 ) ) ;
#220 = DIRECTION ( 'NONE',  ( -0.000000000000000000, -0.000000000000000000, -1.000000000000000000 ) ) ;
#221 = CIRCLE ( 'NONE', #131, 6.000000000000000888 ) ;
#222 = FACE_OUTER_BOUND ( 'NONE', #139, .T. ) ;
#223 = CARTESIAN_POINT ( 'NONE',  ( 0.000000000000000000, 0.000000000000000000, 0.000000000000000000 ) ) ;
#224 = DIRECTION ( 'NONE',  ( 1.000000000000000000, 0.000000000000000000, -0.000000000000000000 ) ) ;
#225 = PERSON_AND_ORGANIZATION ( #300, #97 ) ;
#226 = CARTESIAN_POINT ( 'NONE',  ( 0.000000000000000000, 0.000000000000000000, 5.000000000000000000 ) ) ;
#227 = ORIENTED_EDGE ( 'NONE', *, *, #218, .T. ) ;
#228 = APPLICATION_PROTOCOL_DEFINITION ( 'international standard', 'config_control_design', 1994, #166 ) ;
#229 = ORIENTED_EDGE ( 'NONE', *, *, #192, .T. ) ;
#230 = EDGE_CURVE ( 'NONE', #43, #232, #253, .T. ) ;
#231 = COORDINATED_UNIVERSAL_TIME_OFFSET ( 1, 0, .AHEAD. ) ;
#232 = VERTEX_POINT ( 'NONE', #269 ) ;
#233 = CARTESIAN_POINT ( 'NONE',  ( 0.000000000000000000, 0.000000000000000000, 5.000000000000000000 ) ) ;
#234 = CARTESIAN_POINT ( 'NONE',  ( 3.200000000000000622, 0.000000000000000000, 4.999999999999998224 ) ) ;
#235 = LOCAL_TIME ( 14, 42, 35.00000000000000000, #32 ) ;
#236 = APPROVAL_ROLE ( '' ) ;
#237 = CARTESIAN_POINT ( 'NONE',  ( 3.000000000000000444, 3.673940397442060361E-16, 130.0000000000000000 ) ) ;
#238 = ORIENTED_EDGE ( 'NONE', *, *, #144, .F. ) ;
#239 = VECTOR ( 'NONE', #22, 1000.000000000000000 ) ;
#240 = CARTESIAN_POINT ( 'NONE',  ( 0.000000000000000000, 0.000000000000000000, 0.000000000000000000 ) ) ;
#241 = AXIS2_PLACEMENT_3D ( 'NONE', #31, #177, #133 ) ;
#242 = DIRECTION ( 'NONE',  ( -1.000000000000000000, 0.000000000000000000, 0.000000000000000000 ) ) ;
#243 = EDGE_CURVE ( 'NONE', #258, #43, #129, .T. ) ;
#244 = FACE_OUTER_BOUND ( 'NONE', #17, .T. ) ;
#245 = CARTESIAN_POINT ( 'NONE',  ( -3.200000000000000622, 3.918869757271530953E-16, 4.999999999999998224 ) ) ;
#246 = CYLINDRICAL_SURFACE ( 'NONE', #266, 3.000000000000000444 ) ;
#247 = PERSON_AND_ORGANIZATION_ROLE ( 'creator' ) ;
#248 = ORIENTED_EDGE ( 'NONE', *, *, #168, .T. ) ;
#249 = APPROVAL ( #74, 'NEURÈENÝ' ) ;
#250 = AXIS2_PLACEMENT_3D ( 'NONE', #126, #214, #302 ) ;
#251 = DATE_AND_TIME ( #135, #235 ) ;
#252 = VERTEX_POINT ( 'NONE', #132 ) ;
#253 = CIRCLE ( 'NONE', #196, 6.000000000000000888 ) ;
#254 = PERSON_AND_ORGANIZATION_ROLE ( 'design_supplier' ) ;
#255 = APPROVAL_STATUS ( 'not_yet_approved' ) ;
#256 = ORIENTED_EDGE ( 'NONE', *, *, #66, .T. ) ;
#257 = ADVANCED_FACE ( 'NONE', ( #222 ), #18, .F. ) ;
#258 = VERTEX_POINT ( 'NONE', #79 ) ;
#259 = ORIENTED_EDGE ( 'NONE', *, *, #82, .T. ) ;
#260 = PRODUCT ( '4082', '4082', '', ( #87 ) ) ;
#261 = ORIENTED_EDGE ( 'NONE', *, *, #243, .F. ) ;
#262 = CARTESIAN_POINT ( 'NONE',  ( 0.000000000000000000, 0.000000000000000000, 5.000000000000000000 ) ) ;
#263 = ADVANCED_FACE ( 'NONE', ( #106 ), #287, .T. ) ;
#264 = CARTESIAN_POINT ( 'NONE',  ( 0.000000000000000000, 0.000000000000000000, 130.0000000000000000 ) ) ;
#265 = CARTESIAN_POINT ( 'NONE',  ( -3.000000000000000444, 0.000000000000000000, 130.0000000000000000 ) ) ;
#266 = AXIS2_PLACEMENT_3D ( 'NONE', #288, #57, #242 ) ;
#267 = ADVANCED_FACE ( 'NONE', ( #244 ), #28, .T. ) ;
#268 = DIRECTION ( 'NONE',  ( -0.000000000000000000, -0.000000000000000000, -1.000000000000000000 ) ) ;
#269 = CARTESIAN_POINT ( 'NONE',  ( -6.000000000000000888, 0.000000000000000000, 0.000000000000000000 ) ) ;
#270 = CIRCLE ( 'NONE', #290, 0.2000000000000000944 ) ;
#271 = CARTESIAN_POINT ( 'NONE',  ( 0.000000000000000000, 0.000000000000000000, 130.0000000000000000 ) ) ;
#272 = CARTESIAN_POINT ( 'NONE',  ( -6.000000000000000888, 0.000000000000000000, 5.000000000000000000 ) ) ;
#273 = VERTEX_POINT ( 'NONE', #272 ) ;
#274 = PERSON_AND_ORGANIZATION ( #300, #97 ) ;
#275 = APPROVAL_PERSON_ORGANIZATION ( #61, #305, #115 ) ;
#276 = DIRECTION ( 'NONE',  ( 0.000000000000000000, 0.000000000000000000, 1.000000000000000000 ) ) ;
#277 = DIRECTION ( 'NONE',  ( 0.000000000000000000, 0.000000000000000000, 1.000000000000000000 ) ) ;
#278 = VECTOR ( 'NONE', #198, 1000.000000000000000 ) ;
#279 = CARTESIAN_POINT ( 'NONE',  ( -3.200000000000000622, 3.918869757271530953E-16, 5.199999999999996625 ) ) ;
#280 = ORIENTED_EDGE ( 'NONE', *, *, #218, .F. ) ;
#281 = DATE_AND_TIME ( #148, #49 ) ;
#282 = ORIENTED_EDGE ( 'NONE', *, *, #138, .T. ) ;
#283 = VERTEX_POINT ( 'NONE', #207 ) ;
#284 = CARTESIAN_POINT ( 'NONE',  ( -3.000000000000000444, 0.000000000000000000, 130.0000000000000000 ) ) ;
#285 = TOROIDAL_SURFACE ( 'NONE', #62, 3.200000000000000622, 0.2000000000000000111 ) ;
#286 = CC_DESIGN_DATE_AND_TIME_ASSIGNMENT ( #281, #123, ( #217 ) ) ;
#287 = CYLINDRICAL_SURFACE ( 'NONE', #86, 3.000000000000000444 ) ;
#288 = CARTESIAN_POINT ( 'NONE',  ( 0.000000000000000000, 0.000000000000000000, 130.0000000000000000 ) ) ;
#289 = DIRECTION ( 'NONE',  ( 1.000000000000000000, 0.000000000000000000, 0.000000000000000000 ) ) ;
#290 = AXIS2_PLACEMENT_3D ( 'NONE', #279, #299, #98 ) ;
#291 = COORDINATED_UNIVERSAL_TIME_OFFSET ( 1, 0, .AHEAD. ) ;
#292 = AXIS2_PLACEMENT_3D ( 'NONE', #264, #200, #158 ) ;
#293 =( NAMED_UNIT ( * ) SI_UNIT ( $, .STERADIAN. ) SOLID_ANGLE_UNIT ( ) );
#294 = CALENDAR_DATE ( 2022, 7, 7 ) ;
#295 = VERTEX_POINT ( 'NONE', #161 ) ;
#296 = PERSON_AND_ORGANIZATION ( #300, #97 ) ;
#297 = ORIENTED_EDGE ( 'NONE', *, *, #60, .F. ) ;
#298 = VECTOR ( 'NONE', #30, 1000.000000000000000 ) ;
#299 = DIRECTION ( 'NONE',  ( 1.224646799147353207E-16, 1.000000000000000000, -0.000000000000000000 ) ) ;
#300 = PERSON ( 'NEURÈENÝ', 'NEURÈENÝ', 'NEURÈENÝ', ('NEURÈENÝ'), ('NEURÈENÝ'), ('NEURÈENÝ') ) ;
#301 = ADVANCED_FACE ( 'NONE', ( #112, #136 ), #204, .T. ) ;
#302 = DIRECTION ( 'NONE',  ( 1.000000000000000000, 0.000000000000000000, 0.000000000000000000 ) ) ;
#303 = LINE ( 'NONE', #52, #298 ) ;
#304 = CIRCLE ( 'NONE', #114, 3.200000000000000622 ) ;
#305 = APPROVAL ( #36, 'NEURÈENÝ' ) ;
#306 = DIRECTION ( 'NONE',  ( 1.000000000000000000, 0.000000000000000000, -0.000000000000000000 ) ) ;
#307 = DIRECTION ( 'NONE',  ( 1.000000000000000000, 0.000000000000000000, 0.000000000000000000 ) ) ;
ENDSEC;
END-ISO-10303-21;
