ISO-10303-21;
HEADER;
FILE_DESCRIPTION (( 'STEP AP203' ),
    '1' );
FILE_NAME ('6588.STEP',
    '2022-07-07T12:29:31',
    ( '' ),
    ( '' ),
    'SwSTEP 2.0',
    'SolidWorks 2019',
    '' );
FILE_SCHEMA (( 'CONFIG_CONTROL_DESIGN' ));
ENDSEC;

DATA;
#1 = VERTEX_POINT ( 'NONE', #114 ) ;
#2 = ORIENTED_EDGE ( 'NONE', *, *, #91, .T. ) ;
#3 = ADVANCED_FACE ( 'NONE', ( #279 ), #212, .T. ) ;
#4 = ORIENTED_EDGE ( 'NONE', *, *, #143, .T. ) ;
#5 = DIRECTION ( 'NONE',  ( 0.000000000000000000, 0.000000000000000000, 1.000000000000000000 ) ) ;
#6 = PLANE ( 'NONE',  #277 ) ;
#7 = CIRCLE ( 'NONE', #60, 4.500000000000000000 ) ;
#8 = CC_DESIGN_DATE_AND_TIME_ASSIGNMENT ( #124, #222, ( #231 ) ) ;
#9 = LOCAL_TIME ( 14, 29, 31.00000000000000000, #112 ) ;
#10 = PERSON_AND_ORGANIZATION ( #158, #163 ) ;
#11 = CARTESIAN_POINT ( 'NONE',  ( -4.500000000000000000, 0.000000000000000000, 320.0000000000000000 ) ) ;
#12 = DIRECTION ( 'NONE',  ( -0.000000000000000000, -0.000000000000000000, -1.000000000000000000 ) ) ;
#13 = CARTESIAN_POINT ( 'NONE',  ( 0.000000000000000000, 0.000000000000000000, 320.0000000000000000 ) ) ;
#14 = ADVANCED_FACE ( 'NONE', ( #94 ), #75, .T. ) ;
#15 = DIRECTION ( 'NONE',  ( 0.000000000000000000, 0.000000000000000000, 1.000000000000000000 ) ) ;
#16 = CARTESIAN_POINT ( 'NONE',  ( 0.000000000000000000, 0.000000000000000000, 5.000000000000000000 ) ) ;
#17 = DIRECTION ( 'NONE',  ( 0.000000000000000000, 0.000000000000000000, 1.000000000000000000 ) ) ;
#18 = PERSON_AND_ORGANIZATION ( #158, #163 ) ;
#19 = EDGE_CURVE ( 'NONE', #171, #76, #227, .T. ) ;
#20 = APPROVAL_STATUS ( 'not_yet_approved' ) ;
#21 = COORDINATED_UNIVERSAL_TIME_OFFSET ( 1, 0, .AHEAD. ) ;
#22 = VERTEX_POINT ( 'NONE', #217 ) ;
#23 = PERSON_AND_ORGANIZATION_ROLE ( 'classification_officer' ) ;
#24 = ORIENTED_EDGE ( 'NONE', *, *, #63, .F. ) ;
#25 = EDGE_LOOP ( 'NONE', ( #214, #140, #261, #284 ) ) ;
#26 = PRODUCT_DEFINITION_SHAPE ( 'NONE', 'NONE',  #231 ) ;
#27 = EDGE_LOOP ( 'NONE', ( #118, #98, #2, #235 ) ) ;
#28 = AXIS2_PLACEMENT_3D ( 'NONE', #219, #198, #264 ) ;
#29 = DIRECTION ( 'NONE',  ( 0.000000000000000000, 0.000000000000000000, 1.000000000000000000 ) ) ;
#30 = DIRECTION ( 'NONE',  ( 0.000000000000000000, 0.000000000000000000, 1.000000000000000000 ) ) ;
#31 = EDGE_CURVE ( 'NONE', #1, #96, #120, .T. ) ;
#32 = DIRECTION ( 'NONE',  ( 0.000000000000000000, 0.000000000000000000, 1.000000000000000000 ) ) ;
#33 = COORDINATED_UNIVERSAL_TIME_OFFSET ( 1, 0, .AHEAD. ) ;
#34 = CARTESIAN_POINT ( 'NONE',  ( -7.000000000000000000, 0.000000000000000000, 5.000000000000000000 ) ) ;
#35 = DIRECTION ( 'NONE',  ( -1.000000000000000000, 0.000000000000000000, 0.000000000000000000 ) ) ;
#36 = DIRECTION ( 'NONE',  ( 1.000000000000000000, 0.000000000000000000, 0.000000000000000000 ) ) ;
#37 = CARTESIAN_POINT ( 'NONE',  ( 4.699999999999999289, 0.000000000000000000, 4.999999999999991118 ) ) ;
#38 = CARTESIAN_POINT ( 'NONE',  ( 0.000000000000000000, 0.000000000000000000, 5.000000000000000000 ) ) ;
#39 = DIRECTION ( 'NONE',  ( -0.000000000000000000, -0.000000000000000000, -1.000000000000000000 ) ) ;
#40 = CIRCLE ( 'NONE', #236, 7.000000000000000000 ) ;
#41 = LOCAL_TIME ( 14, 29, 31.00000000000000000, #33 ) ;
#42 = DATE_AND_TIME ( #181, #88 ) ;
#43 = APPROVAL_ROLE ( '' ) ;
#44 =( GEOMETRIC_REPRESENTATION_CONTEXT ( 3 ) GLOBAL_UNCERTAINTY_ASSIGNED_CONTEXT ( ( #295 ) ) GLOBAL_UNIT_ASSIGNED_CONTEXT ( ( #106, #55, #201 ) ) REPRESENTATION_CONTEXT ( 'NONE', 'WORKASPACE' ) );
#45 = ORIENTED_EDGE ( 'NONE', *, *, #31, .T. ) ;
#46 = ORIENTED_EDGE ( 'NONE', *, *, #19, .T. ) ;
#47 = ORIENTED_EDGE ( 'NONE', *, *, #218, .F. ) ;
#48 = VERTEX_POINT ( 'NONE', #84 ) ;
#49 = ORIENTED_EDGE ( 'NONE', *, *, #290, .F. ) ;
#50 = AXIS2_PLACEMENT_3D ( 'NONE', #174, #30, #36 ) ;
#51 = EDGE_LOOP ( 'NONE', ( #240, #194 ) ) ;
#52 = ADVANCED_FACE ( 'NONE', ( #296 ), #92, .F. ) ;
#53 = CARTESIAN_POINT ( 'NONE',  ( 7.000000000000000000, 8.572527594031473190E-16, 0.000000000000000000 ) ) ;
#54 = DIRECTION ( 'NONE',  ( 1.000000000000000000, 0.000000000000000000, 0.000000000000000000 ) ) ;
#55 =( NAMED_UNIT ( * ) PLANE_ANGLE_UNIT ( ) SI_UNIT ( $, .RADIAN. ) );
#56 = LINE ( 'NONE', #153, #303 ) ;
#57 = CARTESIAN_POINT ( 'NONE',  ( 0.000000000000000000, 0.000000000000000000, 5.199999999999982414 ) ) ;
#58 = CARTESIAN_POINT ( 'NONE',  ( -4.699999999999999289, 5.755839955992558669E-16, 4.999999999999991118 ) ) ;
#59 = DIRECTION ( 'NONE',  ( -1.000000000000000000, 1.224646799147353454E-16, 0.000000000000000000 ) ) ;
#60 = AXIS2_PLACEMENT_3D ( 'NONE', #57, #288, #101 ) ;
#61 = ADVANCED_BREP_SHAPE_REPRESENTATION ( '6588', ( #127, #184 ), #44 ) ;
#62 = APPROVAL_DATE_TIME ( #253, #162 ) ;
#63 = EDGE_CURVE ( 'NONE', #74, #96, #262, .T. ) ;
#64 = PERSON_AND_ORGANIZATION_ROLE ( 'creator' ) ;
#65 = CC_DESIGN_PERSON_AND_ORGANIZATION_ASSIGNMENT ( #234, #23, ( #233 ) ) ;
#66 = ADVANCED_FACE ( 'NONE', ( #108 ), #278, .F. ) ;
#67 = CIRCLE ( 'NONE', #50, 7.000000000000000000 ) ;
#68 = PERSON_AND_ORGANIZATION ( #158, #163 ) ;
#69 = CC_DESIGN_SECURITY_CLASSIFICATION ( #233, ( #157 ) ) ;
#70 = ORIENTED_EDGE ( 'NONE', *, *, #165, .T. ) ;
#71 = ORIENTED_EDGE ( 'NONE', *, *, #192, .T. ) ;
#72 = AXIS2_PLACEMENT_3D ( 'NONE', #225, #15, #156 ) ;
#73 = ADVANCED_FACE ( 'NONE', ( #204 ), #6, .F. ) ;
#74 = VERTEX_POINT ( 'NONE', #58 ) ;
#75 = CYLINDRICAL_SURFACE ( 'NONE', #293, 4.500000000000000000 ) ;
#76 = VERTEX_POINT ( 'NONE', #53 ) ;
#77 = CIRCLE ( 'NONE', #144, 4.500000000000000000 ) ;
#78 = CARTESIAN_POINT ( 'NONE',  ( 4.500000000000000000, 5.510910596163088569E-16, 320.0000000000000000 ) ) ;
#79 = LINE ( 'NONE', #34, #221 ) ;
#80 = CALENDAR_DATE ( 2022, 7, 7 ) ;
#81 = DIRECTION ( 'NONE',  ( 1.000000000000000000, 0.000000000000000000, 0.000000000000000000 ) ) ;
#82 = CARTESIAN_POINT ( 'NONE',  ( 0.000000000000000000, 0.000000000000000000, 0.000000000000000000 ) ) ;
#83 = CARTESIAN_POINT ( 'NONE',  ( 0.000000000000000000, 0.000000000000000000, 5.199999999999982414 ) ) ;
#84 = CARTESIAN_POINT ( 'NONE',  ( 7.000000000000000000, 8.572527594031473190E-16, 5.000000000000000000 ) ) ;
#85 = COORDINATED_UNIVERSAL_TIME_OFFSET ( 1, 0, .AHEAD. ) ;
#86 = EDGE_CURVE ( 'NONE', #22, #1, #77, .T. ) ;
#87 = AXIS2_PLACEMENT_3D ( 'NONE', #107, #202, #220 ) ;
#88 = LOCAL_TIME ( 14, 29, 31.00000000000000000, #85 ) ;
#89 = SECURITY_CLASSIFICATION_LEVEL ( 'unclassified' ) ;
#90 = CALENDAR_DATE ( 2022, 7, 7 ) ;
#91 = EDGE_CURVE ( 'NONE', #1, #22, #7, .T. ) ;
#92 = TOROIDAL_SURFACE ( 'NONE', #139, 4.699999999999999289, 0.2000000000000000111 ) ;
#93 = CIRCLE ( 'NONE', #301, 0.1999999999999996503 ) ;
#94 = FACE_OUTER_BOUND ( 'NONE', #285, .T. ) ;
#95 = DATE_AND_TIME ( #187, #304 ) ;
#96 = VERTEX_POINT ( 'NONE', #37 ) ;
#97 = EDGE_LOOP ( 'NONE', ( #188, #166 ) ) ;
#98 = ORIENTED_EDGE ( 'NONE', *, *, #110, .T. ) ;
#99 = VERTEX_POINT ( 'NONE', #272 ) ;
#100 = CC_DESIGN_DATE_AND_TIME_ASSIGNMENT ( #209, #186, ( #233 ) ) ;
#101 = DIRECTION ( 'NONE',  ( 1.000000000000000000, 0.000000000000000000, 0.000000000000000000 ) ) ;
#102 = AXIS2_PLACEMENT_3D ( 'NONE', #242, #29, #121 ) ;
#103 = DIRECTION ( 'NONE',  ( 1.000000000000000000, 0.000000000000000000, 0.000000000000000000 ) ) ;
#104 = CARTESIAN_POINT ( 'NONE',  ( -4.699999999999999289, 5.755839955992558669E-16, 5.199999999999982414 ) ) ;
#105 = CARTESIAN_POINT ( 'NONE',  ( 0.000000000000000000, 0.000000000000000000, 5.000000000000000000 ) ) ;
#106 =( LENGTH_UNIT ( ) NAMED_UNIT ( * ) SI_UNIT ( .MILLI., .METRE. ) );
#107 = CARTESIAN_POINT ( 'NONE',  ( 4.699999999999999289, 0.000000000000000000, 5.199999999999982414 ) ) ;
#108 = FACE_OUTER_BOUND ( 'NONE', #280, .T. ) ;
#109 = APPROVAL_PERSON_ORGANIZATION ( #249, #173, #149 ) ;
#110 = EDGE_CURVE ( 'NONE', #275, #1, #265, .T. ) ;
#111 = MECHANICAL_CONTEXT ( 'NONE', #180, 'mechanical' ) ;
#112 = COORDINATED_UNIVERSAL_TIME_OFFSET ( 1, 0, .AHEAD. ) ;
#113 = EDGE_CURVE ( 'NONE', #76, #171, #67, .T. ) ;
#114 = CARTESIAN_POINT ( 'NONE',  ( 4.500000000000000000, 5.510910596163088569E-16, 5.199999999999982414 ) ) ;
#115 = AXIS2_PLACEMENT_3D ( 'NONE', #195, #148, #176 ) ;
#116 = CC_DESIGN_PERSON_AND_ORGANIZATION_ASSIGNMENT ( #276, #245, ( #231 ) ) ;
#117 = EDGE_LOOP ( 'NONE', ( #70, #190 ) ) ;
#118 = ORIENTED_EDGE ( 'NONE', *, *, #185, .F. ) ;
#119 = EDGE_LOOP ( 'NONE', ( #167, #141, #49, #239 ) ) ;
#120 = CIRCLE ( 'NONE', #87, 0.1999999999999996503 ) ;
#121 = DIRECTION ( 'NONE',  ( 1.000000000000000000, 0.000000000000000000, 0.000000000000000000 ) ) ;
#122 = CARTESIAN_POINT ( 'NONE',  ( 0.000000000000000000, 0.000000000000000000, 5.199999999999982414 ) ) ;
#123 = DIRECTION ( 'NONE',  ( 0.000000000000000000, 0.000000000000000000, 1.000000000000000000 ) ) ;
#124 = DATE_AND_TIME ( #80, #41 ) ;
#125 = AXIS2_PLACEMENT_3D ( 'NONE', #105, #200, #81 ) ;
#126 = CARTESIAN_POINT ( 'NONE',  ( 0.000000000000000000, 0.000000000000000000, 5.000000000000000000 ) ) ;
#127 = MANIFOLD_SOLID_BREP ( 'Zaoblit1', #161 ) ;
#128 = CARTESIAN_POINT ( 'NONE',  ( 0.000000000000000000, 0.000000000000000000, 5.000000000000000000 ) ) ;
#129 = DIRECTION ( 'NONE',  ( 0.000000000000000000, 0.000000000000000000, 1.000000000000000000 ) ) ;
#130 = DIRECTION ( 'NONE',  ( -1.000000000000000000, 0.000000000000000000, 0.000000000000000000 ) ) ;
#131 = FACE_OUTER_BOUND ( 'NONE', #25, .T. ) ;
#132 = AXIS2_PLACEMENT_3D ( 'NONE', #38, #129, #266 ) ;
#133 = APPROVAL_DATE_TIME ( #42, #173 ) ;
#134 = CC_DESIGN_APPROVAL ( #173, ( #231 ) ) ;
#135 = CC_DESIGN_PERSON_AND_ORGANIZATION_ASSIGNMENT ( #298, #155, ( #147 ) ) ;
#136 = CC_DESIGN_PERSON_AND_ORGANIZATION_ASSIGNMENT ( #68, #189, ( #157 ) ) ;
#137 = EDGE_CURVE ( 'NONE', #48, #76, #56, .T. ) ;
#138 = EDGE_LOOP ( 'NONE', ( #146, #306, #4, #46 ) ) ;
#139 = AXIS2_PLACEMENT_3D ( 'NONE', #122, #244, #54 ) ;
#140 = ORIENTED_EDGE ( 'NONE', *, *, #137, .T. ) ;
#141 = ORIENTED_EDGE ( 'NONE', *, *, #267, .T. ) ;
#142 = DIRECTION ( 'NONE',  ( -1.000000000000000000, 0.000000000000000000, 0.000000000000000000 ) ) ;
#143 = EDGE_CURVE ( 'NONE', #255, #171, #79, .T. ) ;
#144 = AXIS2_PLACEMENT_3D ( 'NONE', #83, #123, #292 ) ;
#145 = AXIS2_PLACEMENT_3D ( 'NONE', #13, #297, #35 ) ;
#146 = ORIENTED_EDGE ( 'NONE', *, *, #137, .F. ) ;
#147 = PRODUCT ( '6588', '6588', '', ( #111 ) ) ;
#148 = DIRECTION ( 'NONE',  ( -0.000000000000000000, -0.000000000000000000, -1.000000000000000000 ) ) ;
#149 = APPROVAL_ROLE ( '' ) ;
#150 = DIRECTION ( 'NONE',  ( 1.000000000000000000, 0.000000000000000000, 0.000000000000000000 ) ) ;
#151 = FACE_BOUND ( 'NONE', #259, .T. ) ;
#152 = CC_DESIGN_APPROVAL ( #256, ( #157 ) ) ;
#153 = CARTESIAN_POINT ( 'NONE',  ( 7.000000000000000000, 8.572527594031473190E-16, 5.000000000000000000 ) ) ;
#154 = CARTESIAN_POINT ( 'NONE',  ( 0.000000000000000000, 0.000000000000000000, 5.000000000000000000 ) ) ;
#155 = PERSON_AND_ORGANIZATION_ROLE ( 'design_owner' ) ;
#156 = DIRECTION ( 'NONE',  ( 1.000000000000000000, 0.000000000000000000, 0.000000000000000000 ) ) ;
#157 = PRODUCT_DEFINITION_FORMATION_WITH_SPECIFIED_SOURCE ( 'LIBOVOLNÝ', '', #147, .NOT_KNOWN. ) ;
#158 = PERSON ( 'NEURÈENÝ', 'NEURÈENÝ', 'NEURÈENÝ', ('NEURÈENÝ'), ('NEURÈENÝ'), ('NEURÈENÝ') ) ;
#159 = COORDINATED_UNIVERSAL_TIME_OFFSET ( 1, 0, .AHEAD. ) ;
#160 = PERSON_AND_ORGANIZATION ( #158, #163 ) ;
#161 = CLOSED_SHELL ( 'NONE', ( #52, #273, #251, #210, #305, #73, #14, #3, #66 ) ) ;
#162 = APPROVAL ( #20, 'NEURÈENÝ' ) ;
#163 = ORGANIZATION ( 'NEURÈENÝ', 'NEURÈENÝ', '' ) ;
#164 = CALENDAR_DATE ( 2022, 7, 7 ) ;
#165 = EDGE_CURVE ( 'NONE', #255, #48, #40, .T. ) ;
#166 = ORIENTED_EDGE ( 'NONE', *, *, #113, .F. ) ;
#167 = ORIENTED_EDGE ( 'NONE', *, *, #86, .F. ) ;
#168 = VECTOR ( 'NONE', #243, 1000.000000000000000 ) ;
#169 = ORIENTED_EDGE ( 'NONE', *, *, #267, .F. ) ;
#170 = CARTESIAN_POINT ( 'NONE',  ( 0.000000000000000000, 0.000000000000000000, 320.0000000000000000 ) ) ;
#171 = VERTEX_POINT ( 'NONE', #172 ) ;
#172 = CARTESIAN_POINT ( 'NONE',  ( -7.000000000000000000, 0.000000000000000000, 0.000000000000000000 ) ) ;
#173 = APPROVAL ( #205, 'NEURÈENÝ' ) ;
#174 = CARTESIAN_POINT ( 'NONE',  ( 0.000000000000000000, 0.000000000000000000, 0.000000000000000000 ) ) ;
#175 = APPROVAL_STATUS ( 'not_yet_approved' ) ;
#176 = DIRECTION ( 'NONE',  ( 1.000000000000000000, 0.000000000000000000, 0.000000000000000000 ) ) ;
#177 = FACE_OUTER_BOUND ( 'NONE', #138, .T. ) ;
#178 = DIRECTION ( 'NONE',  ( 1.000000000000000000, 0.000000000000000000, 0.000000000000000000 ) ) ;
#179 = DIRECTION ( 'NONE',  ( 1.000000000000000000, 0.000000000000000000, -0.000000000000000000 ) ) ;
#180 = APPLICATION_CONTEXT ( 'configuration controlled 3d designs of mechanical parts and assemblies' ) ;
#181 = CALENDAR_DATE ( 2022, 7, 7 ) ;
#182 = APPLICATION_PROTOCOL_DEFINITION ( 'international standard', 'config_control_design', 1994, #237 ) ;
#183 = VECTOR ( 'NONE', #12, 1000.000000000000000 ) ;
#184 = AXIS2_PLACEMENT_3D ( 'NONE', #82, #17, #178 ) ;
#185 = EDGE_CURVE ( 'NONE', #275, #99, #211, .T. ) ;
#186 = DATE_TIME_ROLE ( 'classification_date' ) ;
#187 = CALENDAR_DATE ( 2022, 7, 7 ) ;
#188 = ORIENTED_EDGE ( 'NONE', *, *, #19, .F. ) ;
#189 = PERSON_AND_ORGANIZATION_ROLE ( 'design_supplier' ) ;
#190 = ORIENTED_EDGE ( 'NONE', *, *, #196, .T. ) ;
#191 = ORIENTED_EDGE ( 'NONE', *, *, #290, .T. ) ;
#192 = EDGE_CURVE ( 'NONE', #99, #22, #246, .T. ) ;
#193 = ORIENTED_EDGE ( 'NONE', *, *, #91, .F. ) ;
#194 = ORIENTED_EDGE ( 'NONE', *, *, #185, .T. ) ;
#195 = CARTESIAN_POINT ( 'NONE',  ( 0.000000000000000000, 0.000000000000000000, 5.000000000000000000 ) ) ;
#196 = EDGE_CURVE ( 'NONE', #48, #255, #257, .T. ) ;
#197 = AXIS2_PLACEMENT_3D ( 'NONE', #215, #213, #307 ) ;
#198 = DIRECTION ( 'NONE',  ( 0.000000000000000000, 0.000000000000000000, 1.000000000000000000 ) ) ;
#199 = DIRECTION ( 'NONE',  ( -0.000000000000000000, -0.000000000000000000, -1.000000000000000000 ) ) ;
#200 = DIRECTION ( 'NONE',  ( 0.000000000000000000, 0.000000000000000000, 1.000000000000000000 ) ) ;
#201 =( NAMED_UNIT ( * ) SI_UNIT ( $, .STERADIAN. ) SOLID_ANGLE_UNIT ( ) );
#202 = DIRECTION ( 'NONE',  ( 0.000000000000000000, -1.000000000000000000, 0.000000000000000000 ) ) ;
#203 = APPLICATION_PROTOCOL_DEFINITION ( 'international standard', 'config_control_design', 1994, #180 ) ;
#204 = FACE_OUTER_BOUND ( 'NONE', #97, .T. ) ;
#205 = APPROVAL_STATUS ( 'not_yet_approved' ) ;
#206 = CARTESIAN_POINT ( 'NONE',  ( 4.500000000000000000, 5.510910596163088569E-16, 320.0000000000000000 ) ) ;
#207 = CC_DESIGN_PERSON_AND_ORGANIZATION_ASSIGNMENT ( #18, #64, ( #157 ) ) ;
#208 = AXIS2_PLACEMENT_3D ( 'NONE', #154, #248, #130 ) ;
#209 = DATE_AND_TIME ( #164, #254 ) ;
#210 = ADVANCED_FACE ( 'NONE', ( #177 ), #271, .T. ) ;
#211 = CIRCLE ( 'NONE', #287, 4.500000000000000000 ) ;
#212 = PLANE ( 'NONE',  #197 ) ;
#213 = DIRECTION ( 'NONE',  ( 0.000000000000000000, 0.000000000000000000, 1.000000000000000000 ) ) ;
#214 = ORIENTED_EDGE ( 'NONE', *, *, #196, .F. ) ;
#215 = CARTESIAN_POINT ( 'NONE',  ( 0.000000000000000000, 0.000000000000000000, 320.0000000000000000 ) ) ;
#216 = APPROVAL_PERSON_ORGANIZATION ( #10, #256, #302 ) ;
#217 = CARTESIAN_POINT ( 'NONE',  ( -4.500000000000000000, 0.000000000000000000, 5.199999999999982414 ) ) ;
#218 = EDGE_CURVE ( 'NONE', #99, #275, #300, .T. ) ;
#219 = CARTESIAN_POINT ( 'NONE',  ( 0.000000000000000000, 0.000000000000000000, 5.199999999999982414 ) ) ;
#220 = DIRECTION ( 'NONE',  ( 0.000000000000000000, 0.000000000000000000, -1.000000000000000000 ) ) ;
#221 = VECTOR ( 'NONE', #223, 1000.000000000000000 ) ;
#222 = DATE_TIME_ROLE ( 'creation_date' ) ;
#223 = DIRECTION ( 'NONE',  ( -0.000000000000000000, -0.000000000000000000, -1.000000000000000000 ) ) ;
#224 = CARTESIAN_POINT ( 'NONE',  ( 0.000000000000000000, 0.000000000000000000, 320.0000000000000000 ) ) ;
#225 = CARTESIAN_POINT ( 'NONE',  ( 0.000000000000000000, 0.000000000000000000, 320.0000000000000000 ) ) ;
#226 = CYLINDRICAL_SURFACE ( 'NONE', #145, 4.500000000000000000 ) ;
#227 = CIRCLE ( 'NONE', #102, 7.000000000000000000 ) ;
#228 = AXIS2_PLACEMENT_3D ( 'NONE', #16, #39, #229 ) ;
#229 = DIRECTION ( 'NONE',  ( -1.000000000000000000, 0.000000000000000000, 0.000000000000000000 ) ) ;
#230 = PLANE ( 'NONE',  #132 ) ;
#231 = PRODUCT_DEFINITION ( 'NEZNÁMÝ', '', #157, #299 ) ;
#232 = SHAPE_DEFINITION_REPRESENTATION ( #26, #61 ) ;
#233 = SECURITY_CLASSIFICATION ( '', '', #89 ) ;
#234 = PERSON_AND_ORGANIZATION ( #158, #163 ) ;
#235 = ORIENTED_EDGE ( 'NONE', *, *, #192, .F. ) ;
#236 = AXIS2_PLACEMENT_3D ( 'NONE', #126, #5, #150 ) ;
#237 = APPLICATION_CONTEXT ( 'configuration controlled 3d designs of mechanical parts and assemblies' ) ;
#238 = CIRCLE ( 'NONE', #270, 4.699999999999999289 ) ;
#239 = ORIENTED_EDGE ( 'NONE', *, *, #31, .F. ) ;
#240 = ORIENTED_EDGE ( 'NONE', *, *, #218, .T. ) ;
#241 = ORIENTED_EDGE ( 'NONE', *, *, #110, .F. ) ;
#242 = CARTESIAN_POINT ( 'NONE',  ( 0.000000000000000000, 0.000000000000000000, 0.000000000000000000 ) ) ;
#243 = DIRECTION ( 'NONE',  ( -0.000000000000000000, -0.000000000000000000, -1.000000000000000000 ) ) ;
#244 = DIRECTION ( 'NONE',  ( 0.000000000000000000, 0.000000000000000000, 1.000000000000000000 ) ) ;
#245 = PERSON_AND_ORGANIZATION_ROLE ( 'creator' ) ;
#246 = LINE ( 'NONE', #11, #183 ) ;
#247 = DIRECTION ( 'NONE',  ( -0.000000000000000000, -0.000000000000000000, -1.000000000000000000 ) ) ;
#248 = DIRECTION ( 'NONE',  ( -0.000000000000000000, -0.000000000000000000, -1.000000000000000000 ) ) ;
#249 = PERSON_AND_ORGANIZATION ( #158, #163 ) ;
#250 = CYLINDRICAL_SURFACE ( 'NONE', #228, 7.000000000000000000 ) ;
#251 = ADVANCED_FACE ( 'NONE', ( #131 ), #250, .T. ) ;
#252 = APPROVAL_DATE_TIME ( #95, #256 ) ;
#253 = DATE_AND_TIME ( #90, #9 ) ;
#254 = LOCAL_TIME ( 14, 29, 31.00000000000000000, #159 ) ;
#255 = VERTEX_POINT ( 'NONE', #274 ) ;
#256 = APPROVAL ( #175, 'NEURÈENÝ' ) ;
#257 = CIRCLE ( 'NONE', #125, 7.000000000000000000 ) ;
#258 = ORIENTED_EDGE ( 'NONE', *, *, #63, .T. ) ;
#259 = EDGE_LOOP ( 'NONE', ( #191, #258 ) ) ;
#260 = DIRECTION ( 'NONE',  ( -0.000000000000000000, -0.000000000000000000, -1.000000000000000000 ) ) ;
#261 = ORIENTED_EDGE ( 'NONE', *, *, #113, .T. ) ;
#262 = CIRCLE ( 'NONE', #115, 4.699999999999999289 ) ;
#263 = CC_DESIGN_APPROVAL ( #162, ( #233 ) ) ;
#264 = DIRECTION ( 'NONE',  ( 1.000000000000000000, 0.000000000000000000, 0.000000000000000000 ) ) ;
#265 = LINE ( 'NONE', #78, #168 ) ;
#266 = DIRECTION ( 'NONE',  ( 1.000000000000000000, 0.000000000000000000, -0.000000000000000000 ) ) ;
#267 = EDGE_CURVE ( 'NONE', #22, #74, #93, .T. ) ;
#268 = CARTESIAN_POINT ( 'NONE',  ( 0.000000000000000000, 0.000000000000000000, 0.000000000000000000 ) ) ;
#269 = DIRECTION ( 'NONE',  ( 1.000000000000000000, 0.000000000000000000, 0.000000000000000000 ) ) ;
#270 = AXIS2_PLACEMENT_3D ( 'NONE', #128, #199, #269 ) ;
#271 = CYLINDRICAL_SURFACE ( 'NONE', #208, 7.000000000000000000 ) ;
#272 = CARTESIAN_POINT ( 'NONE',  ( -4.500000000000000000, 0.000000000000000000, 320.0000000000000000 ) ) ;
#273 = ADVANCED_FACE ( 'NONE', ( #291 ), #226, .T. ) ;
#274 = CARTESIAN_POINT ( 'NONE',  ( -7.000000000000000000, 0.000000000000000000, 5.000000000000000000 ) ) ;
#275 = VERTEX_POINT ( 'NONE', #206 ) ;
#276 = PERSON_AND_ORGANIZATION ( #158, #163 ) ;
#277 = AXIS2_PLACEMENT_3D ( 'NONE', #268, #286, #179 ) ;
#278 = TOROIDAL_SURFACE ( 'NONE', #28, 4.699999999999999289, 0.2000000000000000111 ) ;
#279 = FACE_OUTER_BOUND ( 'NONE', #51, .T. ) ;
#280 = EDGE_LOOP ( 'NONE', ( #169, #193, #45, #24 ) ) ;
#281 = PRODUCT_RELATED_PRODUCT_CATEGORY ( 'detail', '', ( #147 ) ) ;
#282 = APPROVAL_PERSON_ORGANIZATION ( #160, #162, #43 ) ;
#283 = ORIENTED_EDGE ( 'NONE', *, *, #86, .T. ) ;
#284 = ORIENTED_EDGE ( 'NONE', *, *, #143, .F. ) ;
#285 = EDGE_LOOP ( 'NONE', ( #241, #47, #71, #283 ) ) ;
#286 = DIRECTION ( 'NONE',  ( 0.000000000000000000, 0.000000000000000000, 1.000000000000000000 ) ) ;
#287 = AXIS2_PLACEMENT_3D ( 'NONE', #224, #32, #103 ) ;
#288 = DIRECTION ( 'NONE',  ( 0.000000000000000000, 0.000000000000000000, 1.000000000000000000 ) ) ;
#289 = DIRECTION ( 'NONE',  ( 1.224646799147353207E-16, 1.000000000000000000, -0.000000000000000000 ) ) ;
#290 = EDGE_CURVE ( 'NONE', #96, #74, #238, .T. ) ;
#291 = FACE_OUTER_BOUND ( 'NONE', #27, .T. ) ;
#292 = DIRECTION ( 'NONE',  ( 1.000000000000000000, 0.000000000000000000, 0.000000000000000000 ) ) ;
#293 = AXIS2_PLACEMENT_3D ( 'NONE', #170, #260, #142 ) ;
#294 = FACE_OUTER_BOUND ( 'NONE', #117, .T. ) ;
#295 = UNCERTAINTY_MEASURE_WITH_UNIT (LENGTH_MEASURE( 1.000000000000000082E-05 ), #106, 'distance_accuracy_value', 'NONE');
#296 = FACE_OUTER_BOUND ( 'NONE', #119, .T. ) ;
#297 = DIRECTION ( 'NONE',  ( -0.000000000000000000, -0.000000000000000000, -1.000000000000000000 ) ) ;
#298 = PERSON_AND_ORGANIZATION ( #158, #163 ) ;
#299 = DESIGN_CONTEXT ( 'detailed design', #237, 'design' ) ;
#300 = CIRCLE ( 'NONE', #72, 4.500000000000000000 ) ;
#301 = AXIS2_PLACEMENT_3D ( 'NONE', #104, #289, #59 ) ;
#302 = APPROVAL_ROLE ( '' ) ;
#303 = VECTOR ( 'NONE', #247, 1000.000000000000000 ) ;
#304 = LOCAL_TIME ( 14, 29, 31.00000000000000000, #21 ) ;
#305 = ADVANCED_FACE ( 'NONE', ( #151, #294 ), #230, .T. ) ;
#306 = ORIENTED_EDGE ( 'NONE', *, *, #165, .F. ) ;
#307 = DIRECTION ( 'NONE',  ( 1.000000000000000000, 0.000000000000000000, -0.000000000000000000 ) ) ;
ENDSEC;
END-ISO-10303-21;
