ISO-10303-21;
HEADER;
FILE_DESCRIPTION (( 'STEP AP203' ),
    '1' );
FILE_NAME ('c19f.STEP',
    '2023-02-12T10:59:22',
    ( '' ),
    ( '' ),
    'SwSTEP 2.0',
    'SolidWorks 2019',
    '' );
FILE_SCHEMA (( 'CONFIG_CONTROL_DESIGN' ));
ENDSEC;

DATA;
#1 = LOCAL_TIME ( 11, 59, 22.00000000000000000, #106 ) ;
#2 = CARTESIAN_POINT ( 'NONE',  ( 0.000000000000000000, 0.000000000000000000, 5.000000000000000000 ) ) ;
#3 = EDGE_CURVE ( 'NONE', #185, #149, #195, .T. ) ;
#4 =( LENGTH_UNIT ( ) NAMED_UNIT ( * ) SI_UNIT ( .MILLI., .METRE. ) );
#5 = DATE_TIME_ROLE ( 'classification_date' ) ;
#6 = ORIENTED_EDGE ( 'NONE', *, *, #110, .T. ) ;
#7 = CC_DESIGN_PERSON_AND_ORGANIZATION_ASSIGNMENT ( #53, #244, ( #191 ) ) ;
#8 = CALENDAR_DATE ( 2023, 12, 2 ) ;
#9 = CIRCLE ( 'NONE', #43, 8.000000000000000000 ) ;
#10 = DESIGN_CONTEXT ( 'detailed design', #150, 'design' ) ;
#11 = CARTESIAN_POINT ( 'NONE',  ( 0.000000000000000000, 0.000000000000000000, 5.000000000000000000 ) ) ;
#12 = CARTESIAN_POINT ( 'NONE',  ( 0.000000000000000000, 0.000000000000000000, 160.0000000000000000 ) ) ;
#13 = EDGE_LOOP ( 'NONE', ( #71, #48, #224, #167 ) ) ;
#14 = CARTESIAN_POINT ( 'NONE',  ( -5.099999999999999645, 0.000000000000000000, 5.000000000000000000 ) ) ;
#15 = EDGE_CURVE ( 'NONE', #149, #185, #9, .T. ) ;
#16 = EDGE_LOOP ( 'NONE', ( #84, #190 ) ) ;
#17 = ORIENTED_EDGE ( 'NONE', *, *, #117, .F. ) ;
#18 = ADVANCED_FACE ( 'NONE', ( #209, #32 ), #187, .T. ) ;
#19 = CC_DESIGN_APPROVAL ( #102, ( #235 ) ) ;
#20 = LINE ( 'NONE', #137, #169 ) ;
#21 = CARTESIAN_POINT ( 'NONE',  ( 0.000000000000000000, 0.000000000000000000, 5.000000000000000000 ) ) ;
#22 = ADVANCED_FACE ( 'NONE', ( #170 ), #34, .F. ) ;
#23 = LINE ( 'NONE', #154, #74 ) ;
#24 = MECHANICAL_CONTEXT ( 'NONE', #36, 'mechanical' ) ;
#25 = CC_DESIGN_DATE_AND_TIME_ASSIGNMENT ( #199, #5, ( #242 ) ) ;
#26 = VECTOR ( 'NONE', #61, 1000.000000000000000 ) ;
#27 =( NAMED_UNIT ( * ) SI_UNIT ( $, .STERADIAN. ) SOLID_ANGLE_UNIT ( ) );
#28 = PERSON_AND_ORGANIZATION ( #69, #35 ) ;
#29 = AXIS2_PLACEMENT_3D ( 'NONE', #135, #80, #215 ) ;
#30 = ORIENTED_EDGE ( 'NONE', *, *, #172, .F. ) ;
#31 = APPROVAL_STATUS ( 'not_yet_approved' ) ;
#32 = FACE_OUTER_BOUND ( 'NONE', #72, .T. ) ;
#33 = CC_DESIGN_PERSON_AND_ORGANIZATION_ASSIGNMENT ( #129, #86, ( #235 ) ) ;
#34 = PLANE ( 'NONE',  #77 ) ;
#35 = ORGANIZATION ( 'NEURÈENÝ', 'NEURÈENÝ', '' ) ;
#36 = APPLICATION_CONTEXT ( 'configuration controlled 3d designs of mechanical parts and assemblies' ) ;
#37 = AXIS2_PLACEMENT_3D ( 'NONE', #60, #57, #210 ) ;
#38 = FACE_OUTER_BOUND ( 'NONE', #13, .T. ) ;
#39 = MANIFOLD_SOLID_BREP ( 'Pøidat vysunutím3', #188 ) ;
#40 = DIRECTION ( 'NONE',  ( 1.000000000000000000, 0.000000000000000000, 0.000000000000000000 ) ) ;
#41 = DIRECTION ( 'NONE',  ( -1.000000000000000000, 0.000000000000000000, 0.000000000000000000 ) ) ;
#42 = PRODUCT_RELATED_PRODUCT_CATEGORY ( 'detail', '', ( #191 ) ) ;
#43 = AXIS2_PLACEMENT_3D ( 'NONE', #132, #56, #131 ) ;
#44 = DIRECTION ( 'NONE',  ( 1.000000000000000000, 0.000000000000000000, 0.000000000000000000 ) ) ;
#45 = CARTESIAN_POINT ( 'NONE',  ( 5.099999999999999645, 6.245698675651500839E-16, 160.0000000000000000 ) ) ;
#46 = PERSON_AND_ORGANIZATION ( #69, #35 ) ;
#47 = CC_DESIGN_PERSON_AND_ORGANIZATION_ASSIGNMENT ( #142, #221, ( #242 ) ) ;
#48 = ORIENTED_EDGE ( 'NONE', *, *, #222, .T. ) ;
#49 = VERTEX_POINT ( 'NONE', #14 ) ;
#50 = CC_DESIGN_SECURITY_CLASSIFICATION ( #242, ( #235 ) ) ;
#51 = APPROVAL_ROLE ( '' ) ;
#52 = AXIS2_PLACEMENT_3D ( 'NONE', #207, #165, #201 ) ;
#53 = PERSON_AND_ORGANIZATION ( #69, #35 ) ;
#54 = ORIENTED_EDGE ( 'NONE', *, *, #205, .F. ) ;
#55 = PERSON_AND_ORGANIZATION_ROLE ( 'creator' ) ;
#56 = DIRECTION ( 'NONE',  ( 0.000000000000000000, 0.000000000000000000, 1.000000000000000000 ) ) ;
#57 = DIRECTION ( 'NONE',  ( 0.000000000000000000, 0.000000000000000000, 1.000000000000000000 ) ) ;
#58 = ADVANCED_BREP_SHAPE_REPRESENTATION ( 'c19f', ( #39, #52 ), #92 ) ;
#59 = ADVANCED_FACE ( 'NONE', ( #94 ), #111, .T. ) ;
#60 = CARTESIAN_POINT ( 'NONE',  ( 0.000000000000000000, 0.000000000000000000, 5.000000000000000000 ) ) ;
#61 = DIRECTION ( 'NONE',  ( -0.000000000000000000, -0.000000000000000000, -1.000000000000000000 ) ) ;
#62 = VECTOR ( 'NONE', #98, 1000.000000000000000 ) ;
#63 = DIRECTION ( 'NONE',  ( 0.000000000000000000, 0.000000000000000000, 1.000000000000000000 ) ) ;
#64 = DIRECTION ( 'NONE',  ( -0.000000000000000000, -0.000000000000000000, -1.000000000000000000 ) ) ;
#65 = FACE_OUTER_BOUND ( 'NONE', #124, .T. ) ;
#66 = AXIS2_PLACEMENT_3D ( 'NONE', #12, #168, #67 ) ;
#67 = DIRECTION ( 'NONE',  ( 1.000000000000000000, 0.000000000000000000, -0.000000000000000000 ) ) ;
#68 = SECURITY_CLASSIFICATION_LEVEL ( 'unclassified' ) ;
#69 = PERSON ( 'NEURÈENÝ', 'NEURÈENÝ', 'NEURÈENÝ', ('NEURÈENÝ'), ('NEURÈENÝ'), ('NEURÈENÝ') ) ;
#70 = DATE_AND_TIME ( #160, #1 ) ;
#71 = ORIENTED_EDGE ( 'NONE', *, *, #125, .F. ) ;
#72 = EDGE_LOOP ( 'NONE', ( #112, #89 ) ) ;
#73 = ADVANCED_FACE ( 'NONE', ( #120 ), #218, .T. ) ;
#74 = VECTOR ( 'NONE', #79, 1000.000000000000000 ) ;
#75 = DIRECTION ( 'NONE',  ( 0.000000000000000000, 0.000000000000000000, 1.000000000000000000 ) ) ;
#76 = ORIENTED_EDGE ( 'NONE', *, *, #88, .F. ) ;
#77 = AXIS2_PLACEMENT_3D ( 'NONE', #211, #113, #249 ) ;
#78 = APPROVAL_DATE_TIME ( #212, #186 ) ;
#79 = DIRECTION ( 'NONE',  ( -0.000000000000000000, -0.000000000000000000, -1.000000000000000000 ) ) ;
#80 = DIRECTION ( 'NONE',  ( 0.000000000000000000, 0.000000000000000000, 1.000000000000000000 ) ) ;
#81 = CARTESIAN_POINT ( 'NONE',  ( 8.000000000000000000, 9.797174393178825657E-16, 5.000000000000000000 ) ) ;
#82 = CARTESIAN_POINT ( 'NONE',  ( 0.000000000000000000, 0.000000000000000000, 5.000000000000000000 ) ) ;
#83 = DIRECTION ( 'NONE',  ( 0.000000000000000000, 0.000000000000000000, 1.000000000000000000 ) ) ;
#84 = ORIENTED_EDGE ( 'NONE', *, *, #184, .T. ) ;
#85 = CC_DESIGN_APPROVAL ( #186, ( #242 ) ) ;
#86 = PERSON_AND_ORGANIZATION_ROLE ( 'design_supplier' ) ;
#87 = APPLICATION_PROTOCOL_DEFINITION ( 'international standard', 'config_control_design', 1994, #150 ) ;
#88 = EDGE_CURVE ( 'NONE', #49, #189, #247, .T. ) ;
#89 = ORIENTED_EDGE ( 'NONE', *, *, #3, .T. ) ;
#90 = CIRCLE ( 'NONE', #232, 5.099999999999999645 ) ;
#91 = DIRECTION ( 'NONE',  ( 1.000000000000000000, 0.000000000000000000, -0.000000000000000000 ) ) ;
#92 =( GEOMETRIC_REPRESENTATION_CONTEXT ( 3 ) GLOBAL_UNCERTAINTY_ASSIGNED_CONTEXT ( ( #162 ) ) GLOBAL_UNIT_ASSIGNED_CONTEXT ( ( #4, #227, #27 ) ) REPRESENTATION_CONTEXT ( 'NONE', 'WORKASPACE' ) );
#93 = LOCAL_TIME ( 11, 59, 22.00000000000000000, #240 ) ;
#94 = FACE_OUTER_BOUND ( 'NONE', #16, .T. ) ;
#95 = CALENDAR_DATE ( 2023, 12, 2 ) ;
#96 = AXIS2_PLACEMENT_3D ( 'NONE', #82, #139, #41 ) ;
#97 = CARTESIAN_POINT ( 'NONE',  ( 5.099999999999999645, 6.245698675651500839E-16, 5.000000000000000000 ) ) ;
#98 = DIRECTION ( 'NONE',  ( -0.000000000000000000, -0.000000000000000000, -1.000000000000000000 ) ) ;
#99 = CC_DESIGN_APPROVAL ( #245, ( #250 ) ) ;
#100 = CARTESIAN_POINT ( 'NONE',  ( 8.000000000000000000, 9.797174393178825657E-16, 0.000000000000000000 ) ) ;
#101 = LINE ( 'NONE', #175, #62 ) ;
#102 = APPROVAL ( #183, 'NEURÈENÝ' ) ;
#103 = AXIS2_PLACEMENT_3D ( 'NONE', #219, #64, #255 ) ;
#104 = APPLICATION_PROTOCOL_DEFINITION ( 'international standard', 'config_control_design', 1994, #36 ) ;
#105 = APPROVAL_DATE_TIME ( #239, #245 ) ;
#106 = COORDINATED_UNIVERSAL_TIME_OFFSET ( 1, 0, .AHEAD. ) ;
#107 = ORIENTED_EDGE ( 'NONE', *, *, #193, .F. ) ;
#108 = SHAPE_DEFINITION_REPRESENTATION ( #196, #58 ) ;
#109 = AXIS2_PLACEMENT_3D ( 'NONE', #156, #176, #140 ) ;
#110 = EDGE_CURVE ( 'NONE', #115, #49, #20, .T. ) ;
#111 = PLANE ( 'NONE',  #66 ) ;
#112 = ORIENTED_EDGE ( 'NONE', *, *, #15, .T. ) ;
#113 = DIRECTION ( 'NONE',  ( 0.000000000000000000, 0.000000000000000000, 1.000000000000000000 ) ) ;
#114 = LOCAL_TIME ( 11, 59, 22.00000000000000000, #128 ) ;
#115 = VERTEX_POINT ( 'NONE', #237 ) ;
#116 = CYLINDRICAL_SURFACE ( 'NONE', #202, 5.099999999999999645 ) ;
#117 = EDGE_CURVE ( 'NONE', #149, #148, #101, .T. ) ;
#118 = EDGE_LOOP ( 'NONE', ( #107, #248, #253, #246 ) ) ;
#119 = DIRECTION ( 'NONE',  ( -1.000000000000000000, 0.000000000000000000, 0.000000000000000000 ) ) ;
#120 = FACE_OUTER_BOUND ( 'NONE', #230, .T. ) ;
#121 = DIRECTION ( 'NONE',  ( -0.000000000000000000, -0.000000000000000000, -1.000000000000000000 ) ) ;
#122 = CYLINDRICAL_SURFACE ( 'NONE', #109, 5.099999999999999645 ) ;
#123 = CALENDAR_DATE ( 2023, 12, 2 ) ;
#124 = EDGE_LOOP ( 'NONE', ( #226, #134, #6, #200 ) ) ;
#125 = EDGE_CURVE ( 'NONE', #159, #115, #90, .T. ) ;
#126 = LOCAL_TIME ( 11, 59, 22.00000000000000000, #133 ) ;
#127 = PERSON_AND_ORGANIZATION_ROLE ( 'creator' ) ;
#128 = COORDINATED_UNIVERSAL_TIME_OFFSET ( 1, 0, .AHEAD. ) ;
#129 = PERSON_AND_ORGANIZATION ( #69, #35 ) ;
#130 = CIRCLE ( 'NONE', #251, 5.099999999999999645 ) ;
#131 = DIRECTION ( 'NONE',  ( 1.000000000000000000, 0.000000000000000000, 0.000000000000000000 ) ) ;
#132 = CARTESIAN_POINT ( 'NONE',  ( 0.000000000000000000, 0.000000000000000000, 5.000000000000000000 ) ) ;
#133 = COORDINATED_UNIVERSAL_TIME_OFFSET ( 1, 0, .AHEAD. ) ;
#134 = ORIENTED_EDGE ( 'NONE', *, *, #184, .F. ) ;
#135 = CARTESIAN_POINT ( 'NONE',  ( 0.000000000000000000, 0.000000000000000000, 0.000000000000000000 ) ) ;
#136 = CC_DESIGN_PERSON_AND_ORGANIZATION_ASSIGNMENT ( #46, #127, ( #250 ) ) ;
#137 = CARTESIAN_POINT ( 'NONE',  ( -5.099999999999999645, 0.000000000000000000, 160.0000000000000000 ) ) ;
#138 = AXIS2_PLACEMENT_3D ( 'NONE', #173, #178, #152 ) ;
#139 = DIRECTION ( 'NONE',  ( -0.000000000000000000, -0.000000000000000000, -1.000000000000000000 ) ) ;
#140 = DIRECTION ( 'NONE',  ( -1.000000000000000000, 0.000000000000000000, 0.000000000000000000 ) ) ;
#141 = CARTESIAN_POINT ( 'NONE',  ( -8.000000000000000000, 0.000000000000000000, 5.000000000000000000 ) ) ;
#142 = PERSON_AND_ORGANIZATION ( #69, #35 ) ;
#143 = COORDINATED_UNIVERSAL_TIME_OFFSET ( 1, 0, .AHEAD. ) ;
#144 = DATE_TIME_ROLE ( 'creation_date' ) ;
#145 = PERSON_AND_ORGANIZATION ( #69, #35 ) ;
#146 = ORIENTED_EDGE ( 'NONE', *, *, #228, .T. ) ;
#147 = APPROVAL_ROLE ( '' ) ;
#148 = VERTEX_POINT ( 'NONE', #217 ) ;
#149 = VERTEX_POINT ( 'NONE', #141 ) ;
#150 = APPLICATION_CONTEXT ( 'configuration controlled 3d designs of mechanical parts and assemblies' ) ;
#151 = ADVANCED_FACE ( 'NONE', ( #236 ), #220, .T. ) ;
#152 = DIRECTION ( 'NONE',  ( 1.000000000000000000, 0.000000000000000000, 0.000000000000000000 ) ) ;
#153 = CARTESIAN_POINT ( 'NONE',  ( 0.000000000000000000, 0.000000000000000000, 160.0000000000000000 ) ) ;
#154 = CARTESIAN_POINT ( 'NONE',  ( 8.000000000000000000, 9.797174393178825657E-16, 5.000000000000000000 ) ) ;
#155 = APPROVAL_PERSON_ORGANIZATION ( #164, #186, #213 ) ;
#156 = CARTESIAN_POINT ( 'NONE',  ( 0.000000000000000000, 0.000000000000000000, 160.0000000000000000 ) ) ;
#157 = CC_DESIGN_PERSON_AND_ORGANIZATION_ASSIGNMENT ( #145, #55, ( #235 ) ) ;
#158 = DIRECTION ( 'NONE',  ( 0.000000000000000000, 0.000000000000000000, 1.000000000000000000 ) ) ;
#159 = VERTEX_POINT ( 'NONE', #45 ) ;
#160 = CALENDAR_DATE ( 2023, 12, 2 ) ;
#161 = LOCAL_TIME ( 11, 59, 22.00000000000000000, #143 ) ;
#162 = UNCERTAINTY_MEASURE_WITH_UNIT (LENGTH_MEASURE( 1.000000000000000082E-05 ), #4, 'distance_accuracy_value', 'NONE');
#163 = ADVANCED_FACE ( 'NONE', ( #65 ), #122, .T. ) ;
#164 = PERSON_AND_ORGANIZATION ( #69, #35 ) ;
#165 = DIRECTION ( 'NONE',  ( 0.000000000000000000, 0.000000000000000000, 1.000000000000000000 ) ) ;
#166 = DATE_AND_TIME ( #8, #114 ) ;
#167 = ORIENTED_EDGE ( 'NONE', *, *, #110, .F. ) ;
#168 = DIRECTION ( 'NONE',  ( 0.000000000000000000, 0.000000000000000000, 1.000000000000000000 ) ) ;
#169 = VECTOR ( 'NONE', #121, 1000.000000000000000 ) ;
#170 = FACE_OUTER_BOUND ( 'NONE', #243, .T. ) ;
#171 = CIRCLE ( 'NONE', #29, 8.000000000000000000 ) ;
#172 = EDGE_CURVE ( 'NONE', #189, #49, #130, .T. ) ;
#173 = CARTESIAN_POINT ( 'NONE',  ( 0.000000000000000000, 0.000000000000000000, 0.000000000000000000 ) ) ;
#174 = VERTEX_POINT ( 'NONE', #100 ) ;
#175 = CARTESIAN_POINT ( 'NONE',  ( -8.000000000000000000, 0.000000000000000000, 5.000000000000000000 ) ) ;
#176 = DIRECTION ( 'NONE',  ( -0.000000000000000000, -0.000000000000000000, -1.000000000000000000 ) ) ;
#177 = APPROVAL_PERSON_ORGANIZATION ( #181, #102, #147 ) ;
#178 = DIRECTION ( 'NONE',  ( 0.000000000000000000, 0.000000000000000000, 1.000000000000000000 ) ) ;
#179 = CC_DESIGN_DATE_AND_TIME_ASSIGNMENT ( #70, #144, ( #250 ) ) ;
#180 = APPROVAL_STATUS ( 'not_yet_approved' ) ;
#181 = PERSON_AND_ORGANIZATION ( #69, #35 ) ;
#182 = AXIS2_PLACEMENT_3D ( 'NONE', #11, #75, #91 ) ;
#183 = APPROVAL_STATUS ( 'not_yet_approved' ) ;
#184 = EDGE_CURVE ( 'NONE', #115, #159, #208, .T. ) ;
#185 = VERTEX_POINT ( 'NONE', #81 ) ;
#186 = APPROVAL ( #31, 'NEURÈENÝ' ) ;
#187 = PLANE ( 'NONE',  #182 ) ;
#188 = CLOSED_SHELL ( 'NONE', ( #254, #73, #151, #18, #22, #163, #59 ) ) ;
#189 = VERTEX_POINT ( 'NONE', #97 ) ;
#190 = ORIENTED_EDGE ( 'NONE', *, *, #125, .T. ) ;
#191 = PRODUCT ( 'c19f', 'c19f', '', ( #24 ) ) ;
#192 = CARTESIAN_POINT ( 'NONE',  ( 0.000000000000000000, 0.000000000000000000, 160.0000000000000000 ) ) ;
#193 = EDGE_CURVE ( 'NONE', #185, #174, #23, .T. ) ;
#194 = CARTESIAN_POINT ( 'NONE',  ( 0.000000000000000000, 0.000000000000000000, 160.0000000000000000 ) ) ;
#195 = CIRCLE ( 'NONE', #37, 8.000000000000000000 ) ;
#196 = PRODUCT_DEFINITION_SHAPE ( 'NONE', 'NONE',  #250 ) ;
#197 = DIRECTION ( 'NONE',  ( 1.000000000000000000, 0.000000000000000000, 0.000000000000000000 ) ) ;
#198 = DIRECTION ( 'NONE',  ( 0.000000000000000000, 0.000000000000000000, 1.000000000000000000 ) ) ;
#199 = DATE_AND_TIME ( #123, #161 ) ;
#200 = ORIENTED_EDGE ( 'NONE', *, *, #88, .T. ) ;
#201 = DIRECTION ( 'NONE',  ( 1.000000000000000000, 0.000000000000000000, 0.000000000000000000 ) ) ;
#202 = AXIS2_PLACEMENT_3D ( 'NONE', #192, #233, #119 ) ;
#203 = APPROVAL_PERSON_ORGANIZATION ( #28, #245, #51 ) ;
#204 = ORIENTED_EDGE ( 'NONE', *, *, #193, .T. ) ;
#205 = EDGE_CURVE ( 'NONE', #148, #174, #238, .T. ) ;
#206 = EDGE_LOOP ( 'NONE', ( #76, #30 ) ) ;
#207 = CARTESIAN_POINT ( 'NONE',  ( 0.000000000000000000, 0.000000000000000000, 0.000000000000000000 ) ) ;
#208 = CIRCLE ( 'NONE', #225, 5.099999999999999645 ) ;
#209 = FACE_BOUND ( 'NONE', #206, .T. ) ;
#210 = DIRECTION ( 'NONE',  ( 1.000000000000000000, 0.000000000000000000, 0.000000000000000000 ) ) ;
#211 = CARTESIAN_POINT ( 'NONE',  ( 0.000000000000000000, 0.000000000000000000, 0.000000000000000000 ) ) ;
#212 = DATE_AND_TIME ( #95, #126 ) ;
#213 = APPROVAL_ROLE ( '' ) ;
#214 = AXIS2_PLACEMENT_3D ( 'NONE', #21, #83, #44 ) ;
#215 = DIRECTION ( 'NONE',  ( 1.000000000000000000, 0.000000000000000000, 0.000000000000000000 ) ) ;
#216 = ORIENTED_EDGE ( 'NONE', *, *, #228, .F. ) ;
#217 = CARTESIAN_POINT ( 'NONE',  ( -8.000000000000000000, 0.000000000000000000, 0.000000000000000000 ) ) ;
#218 = CYLINDRICAL_SURFACE ( 'NONE', #103, 8.000000000000000000 ) ;
#219 = CARTESIAN_POINT ( 'NONE',  ( 0.000000000000000000, 0.000000000000000000, 5.000000000000000000 ) ) ;
#220 = CYLINDRICAL_SURFACE ( 'NONE', #96, 8.000000000000000000 ) ;
#221 = PERSON_AND_ORGANIZATION_ROLE ( 'classification_officer' ) ;
#222 = EDGE_CURVE ( 'NONE', #159, #189, #231, .T. ) ;
#223 = CALENDAR_DATE ( 2023, 12, 2 ) ;
#224 = ORIENTED_EDGE ( 'NONE', *, *, #172, .T. ) ;
#225 = AXIS2_PLACEMENT_3D ( 'NONE', #153, #63, #40 ) ;
#226 = ORIENTED_EDGE ( 'NONE', *, *, #222, .F. ) ;
#227 =( NAMED_UNIT ( * ) PLANE_ANGLE_UNIT ( ) SI_UNIT ( $, .RADIAN. ) );
#228 = EDGE_CURVE ( 'NONE', #174, #148, #171, .T. ) ;
#229 = ORIENTED_EDGE ( 'NONE', *, *, #3, .F. ) ;
#230 = EDGE_LOOP ( 'NONE', ( #229, #204, #146, #17 ) ) ;
#231 = LINE ( 'NONE', #234, #26 ) ;
#232 = AXIS2_PLACEMENT_3D ( 'NONE', #194, #158, #252 ) ;
#233 = DIRECTION ( 'NONE',  ( -0.000000000000000000, -0.000000000000000000, -1.000000000000000000 ) ) ;
#234 = CARTESIAN_POINT ( 'NONE',  ( 5.099999999999999645, 6.245698675651500839E-16, 160.0000000000000000 ) ) ;
#235 = PRODUCT_DEFINITION_FORMATION_WITH_SPECIFIED_SOURCE ( 'LIBOVOLNÝ', '', #191, .NOT_KNOWN. ) ;
#236 = FACE_OUTER_BOUND ( 'NONE', #118, .T. ) ;
#237 = CARTESIAN_POINT ( 'NONE',  ( -5.099999999999999645, 0.000000000000000000, 160.0000000000000000 ) ) ;
#238 = CIRCLE ( 'NONE', #138, 8.000000000000000000 ) ;
#239 = DATE_AND_TIME ( #223, #93 ) ;
#240 = COORDINATED_UNIVERSAL_TIME_OFFSET ( 1, 0, .AHEAD. ) ;
#241 = APPROVAL_DATE_TIME ( #166, #102 ) ;
#242 = SECURITY_CLASSIFICATION ( '', '', #68 ) ;
#243 = EDGE_LOOP ( 'NONE', ( #54, #216 ) ) ;
#244 = PERSON_AND_ORGANIZATION_ROLE ( 'design_owner' ) ;
#245 = APPROVAL ( #180, 'NEURÈENÝ' ) ;
#246 = ORIENTED_EDGE ( 'NONE', *, *, #205, .T. ) ;
#247 = CIRCLE ( 'NONE', #214, 5.099999999999999645 ) ;
#248 = ORIENTED_EDGE ( 'NONE', *, *, #15, .F. ) ;
#249 = DIRECTION ( 'NONE',  ( 1.000000000000000000, 0.000000000000000000, -0.000000000000000000 ) ) ;
#250 = PRODUCT_DEFINITION ( 'NEZNÁMÝ', '', #235, #10 ) ;
#251 = AXIS2_PLACEMENT_3D ( 'NONE', #2, #198, #197 ) ;
#252 = DIRECTION ( 'NONE',  ( 1.000000000000000000, 0.000000000000000000, 0.000000000000000000 ) ) ;
#253 = ORIENTED_EDGE ( 'NONE', *, *, #117, .T. ) ;
#254 = ADVANCED_FACE ( 'NONE', ( #38 ), #116, .T. ) ;
#255 = DIRECTION ( 'NONE',  ( -1.000000000000000000, 0.000000000000000000, 0.000000000000000000 ) ) ;
ENDSEC;
END-ISO-10303-21;
