ISO-10303-21;
HEADER;
FILE_DESCRIPTION (( 'STEP AP203' ),
    '1' );
FILE_NAME ('6f96.STEP',
    '2022-07-07T12:35:04',
    ( '' ),
    ( '' ),
    'SwSTEP 2.0',
    'SolidWorks 2019',
    '' );
FILE_SCHEMA (( 'CONFIG_CONTROL_DESIGN' ));
ENDSEC;

DATA;
#1 = CARTESIAN_POINT ( 'NONE',  ( 0.000000000000000000, 0.000000000000000000, 105.0000000000000142 ) ) ;
#2 = LOCAL_TIME ( 14, 35, 4.000000000000000000, #24 ) ;
#3 = CARTESIAN_POINT ( 'NONE',  ( 0.000000000000000000, 0.000000000000000000, 105.0000000000000142 ) ) ;
#4 = COORDINATED_UNIVERSAL_TIME_OFFSET ( 1, 0, .AHEAD. ) ;
#5 = VECTOR ( 'NONE', #266, 1000.000000000000000 ) ;
#6 = DATE_AND_TIME ( #178, #29 ) ;
#7 = ORIENTED_EDGE ( 'NONE', *, *, #240, .F. ) ;
#8 = ORIENTED_EDGE ( 'NONE', *, *, #22, .F. ) ;
#9 = ADVANCED_BREP_SHAPE_REPRESENTATION ( '6f96', ( #32, #301 ), #49 ) ;
#10 = FACE_OUTER_BOUND ( 'NONE', #138, .T. ) ;
#11 = DIRECTION ( 'NONE',  ( 1.224646799147353207E-16, 1.000000000000000000, -0.000000000000000000 ) ) ;
#12 = DIRECTION ( 'NONE',  ( 0.000000000000000000, 0.000000000000000000, 1.000000000000000000 ) ) ;
#13 = CIRCLE ( 'NONE', #191, 4.200000000000000178 ) ;
#14 = SECURITY_CLASSIFICATION ( '', '', #82 ) ;
#15 = EDGE_CURVE ( 'NONE', #293, #66, #13, .T. ) ;
#16 = DIRECTION ( 'NONE',  ( -0.000000000000000000, -0.000000000000000000, -1.000000000000000000 ) ) ;
#17 = EDGE_LOOP ( 'NONE', ( #140, #247, #253, #226 ) ) ;
#18 = DIRECTION ( 'NONE',  ( -0.000000000000000000, -0.000000000000000000, -1.000000000000000000 ) ) ;
#19 = CARTESIAN_POINT ( 'NONE',  ( 4.000000000000000000, 4.898587196589412829E-16, 105.0000000000000142 ) ) ;
#20 = PLANE ( 'NONE',  #185 ) ;
#21 = CYLINDRICAL_SURFACE ( 'NONE', #257, 4.000000000000000000 ) ;
#22 = EDGE_CURVE ( 'NONE', #255, #210, #271, .T. ) ;
#23 = CYLINDRICAL_SURFACE ( 'NONE', #273, 4.000000000000000000 ) ;
#24 = COORDINATED_UNIVERSAL_TIME_OFFSET ( 1, 0, .AHEAD. ) ;
#25 = EDGE_LOOP ( 'NONE', ( #90, #163, #33, #245 ) ) ;
#26 = PERSON_AND_ORGANIZATION_ROLE ( 'design_owner' ) ;
#27 = APPROVAL_PERSON_ORGANIZATION ( #270, #43, #104 ) ;
#28 =( NAMED_UNIT ( * ) SI_UNIT ( $, .STERADIAN. ) SOLID_ANGLE_UNIT ( ) );
#29 = LOCAL_TIME ( 14, 35, 4.000000000000000000, #4 ) ;
#30 = CC_DESIGN_PERSON_AND_ORGANIZATION_ASSIGNMENT ( #133, #202, ( #171 ) ) ;
#31 = PERSON_AND_ORGANIZATION ( #105, #148 ) ;
#32 = MANIFOLD_SOLID_BREP ( 'Zaoblit1', #155 ) ;
#33 = ORIENTED_EDGE ( 'NONE', *, *, #64, .T. ) ;
#34 = ADVANCED_FACE ( 'NONE', ( #205, #232 ), #300, .T. ) ;
#35 = MECHANICAL_CONTEXT ( 'NONE', #164, 'mechanical' ) ;
#36 = ORIENTED_EDGE ( 'NONE', *, *, #73, .F. ) ;
#37 = PRODUCT ( '6f96', '6f96', '', ( #35 ) ) ;
#38 = CARTESIAN_POINT ( 'NONE',  ( -4.200000000000000178, 5.143516556418882928E-16, 5.199999999999996625 ) ) ;
#39 = DIRECTION ( 'NONE',  ( 1.000000000000000000, 0.000000000000000000, -0.000000000000000000 ) ) ;
#40 = AXIS2_PLACEMENT_3D ( 'NONE', #186, #89, #276 ) ;
#41 = VERTEX_POINT ( 'NONE', #208 ) ;
#42 = DIRECTION ( 'NONE',  ( 0.000000000000000000, 0.000000000000000000, -1.000000000000000000 ) ) ;
#43 = APPROVAL ( #175, 'NEURÈENÝ' ) ;
#44 = DIRECTION ( 'NONE',  ( -0.000000000000000000, -0.000000000000000000, -1.000000000000000000 ) ) ;
#45 = CIRCLE ( 'NONE', #269, 7.000000000000000000 ) ;
#46 = UNCERTAINTY_MEASURE_WITH_UNIT (LENGTH_MEASURE( 1.000000000000000082E-05 ), #86, 'distance_accuracy_value', 'NONE');
#47 = DIRECTION ( 'NONE',  ( 1.000000000000000000, 0.000000000000000000, 0.000000000000000000 ) ) ;
#48 = AXIS2_PLACEMENT_3D ( 'NONE', #159, #161, #281 ) ;
#49 =( GEOMETRIC_REPRESENTATION_CONTEXT ( 3 ) GLOBAL_UNCERTAINTY_ASSIGNED_CONTEXT ( ( #46 ) ) GLOBAL_UNIT_ASSIGNED_CONTEXT ( ( #86, #134, #28 ) ) REPRESENTATION_CONTEXT ( 'NONE', 'WORKASPACE' ) );
#50 = DIRECTION ( 'NONE',  ( -0.000000000000000000, -0.000000000000000000, -1.000000000000000000 ) ) ;
#51 = CARTESIAN_POINT ( 'NONE',  ( -7.000000000000000000, 0.000000000000000000, 5.000000000000000000 ) ) ;
#52 = DIRECTION ( 'NONE',  ( 0.000000000000000000, 0.000000000000000000, 1.000000000000000000 ) ) ;
#53 = AXIS2_PLACEMENT_3D ( 'NONE', #307, #304, #147 ) ;
#54 = CALENDAR_DATE ( 2022, 7, 7 ) ;
#55 = VERTEX_POINT ( 'NONE', #254 ) ;
#56 = PERSON_AND_ORGANIZATION_ROLE ( 'creator' ) ;
#57 = EDGE_LOOP ( 'NONE', ( #8, #183 ) ) ;
#58 = DIRECTION ( 'NONE',  ( 0.000000000000000000, 0.000000000000000000, 1.000000000000000000 ) ) ;
#59 = ORIENTED_EDGE ( 'NONE', *, *, #15, .F. ) ;
#60 = CIRCLE ( 'NONE', #252, 7.000000000000000000 ) ;
#61 = LOCAL_TIME ( 14, 35, 4.000000000000000000, #229 ) ;
#62 = EDGE_LOOP ( 'NONE', ( #302, #272 ) ) ;
#63 = DIRECTION ( 'NONE',  ( 1.000000000000000000, 0.000000000000000000, 0.000000000000000000 ) ) ;
#64 = EDGE_CURVE ( 'NONE', #132, #162, #280, .T. ) ;
#65 = ORIENTED_EDGE ( 'NONE', *, *, #174, .F. ) ;
#66 = VERTEX_POINT ( 'NONE', #70 ) ;
#67 = CIRCLE ( 'NONE', #109, 4.000000000000000000 ) ;
#68 = PRODUCT_RELATED_PRODUCT_CATEGORY ( 'detail', '', ( #37 ) ) ;
#69 = CARTESIAN_POINT ( 'NONE',  ( -4.000000000000000000, 0.000000000000000000, 105.0000000000000142 ) ) ;
#70 = CARTESIAN_POINT ( 'NONE',  ( -4.200000000000000178, 5.143516556418882928E-16, 4.999999999999998224 ) ) ;
#71 = CARTESIAN_POINT ( 'NONE',  ( 4.200000000000000178, 0.000000000000000000, 5.199999999999996625 ) ) ;
#72 = CC_DESIGN_DATE_AND_TIME_ASSIGNMENT ( #152, #248, ( #14 ) ) ;
#73 = EDGE_CURVE ( 'NONE', #203, #55, #60, .T. ) ;
#74 = CARTESIAN_POINT ( 'NONE',  ( 7.000000000000000000, 8.572527594031473190E-16, 0.000000000000000000 ) ) ;
#75 = DIRECTION ( 'NONE',  ( -0.000000000000000000, -0.000000000000000000, -1.000000000000000000 ) ) ;
#76 = DIRECTION ( 'NONE',  ( 1.000000000000000000, 0.000000000000000000, -0.000000000000000000 ) ) ;
#77 = CC_DESIGN_APPROVAL ( #43, ( #171 ) ) ;
#78 = DIRECTION ( 'NONE',  ( 0.000000000000000000, 0.000000000000000000, 1.000000000000000000 ) ) ;
#79 = APPLICATION_CONTEXT ( 'configuration controlled 3d designs of mechanical parts and assemblies' ) ;
#80 = DIRECTION ( 'NONE',  ( 0.000000000000000000, 0.000000000000000000, 1.000000000000000000 ) ) ;
#81 = APPROVAL_DATE_TIME ( #110, #129 ) ;
#82 = SECURITY_CLASSIFICATION_LEVEL ( 'unclassified' ) ;
#83 = ORIENTED_EDGE ( 'NONE', *, *, #240, .T. ) ;
#84 = APPROVAL_ROLE ( '' ) ;
#85 = AXIS2_PLACEMENT_3D ( 'NONE', #227, #234, #39 ) ;
#86 =( LENGTH_UNIT ( ) NAMED_UNIT ( * ) SI_UNIT ( .MILLI., .METRE. ) );
#87 = ADVANCED_FACE ( 'NONE', ( #228 ), #236, .F. ) ;
#88 = PRODUCT_DEFINITION_SHAPE ( 'NONE', 'NONE',  #182 ) ;
#89 = DIRECTION ( 'NONE',  ( 0.000000000000000000, 0.000000000000000000, 1.000000000000000000 ) ) ;
#90 = ORIENTED_EDGE ( 'NONE', *, *, #168, .F. ) ;
#91 = DIRECTION ( 'NONE',  ( -0.000000000000000000, -0.000000000000000000, -1.000000000000000000 ) ) ;
#92 = AXIS2_PLACEMENT_3D ( 'NONE', #103, #194, #289 ) ;
#93 = ORIENTED_EDGE ( 'NONE', *, *, #265, .T. ) ;
#94 = APPROVAL ( #201, 'NEURÈENÝ' ) ;
#95 = DIRECTION ( 'NONE',  ( 1.000000000000000000, 0.000000000000000000, 0.000000000000000000 ) ) ;
#96 = EDGE_CURVE ( 'NONE', #41, #162, #108, .T. ) ;
#97 = CYLINDRICAL_SURFACE ( 'NONE', #237, 7.000000000000000000 ) ;
#98 = CIRCLE ( 'NONE', #218, 4.000000000000000000 ) ;
#99 = CARTESIAN_POINT ( 'NONE',  ( 0.000000000000000000, 0.000000000000000000, 105.0000000000000142 ) ) ;
#100 = EDGE_CURVE ( 'NONE', #162, #66, #216, .T. ) ;
#101 = CARTESIAN_POINT ( 'NONE',  ( 0.000000000000000000, 0.000000000000000000, 5.000000000000000000 ) ) ;
#102 = LOCAL_TIME ( 14, 35, 4.000000000000000000, #196 ) ;
#103 = CARTESIAN_POINT ( 'NONE',  ( 0.000000000000000000, 0.000000000000000000, 5.199999999999996625 ) ) ;
#104 = APPROVAL_ROLE ( '' ) ;
#105 = PERSON ( 'NEURÈENÝ', 'NEURÈENÝ', 'NEURÈENÝ', ('NEURÈENÝ'), ('NEURÈENÝ'), ('NEURÈENÝ') ) ;
#106 = CC_DESIGN_DATE_AND_TIME_ASSIGNMENT ( #6, #246, ( #182 ) ) ;
#107 = APPROVAL_DATE_TIME ( #151, #43 ) ;
#108 = CIRCLE ( 'NONE', #48, 4.000000000000000000 ) ;
#109 = AXIS2_PLACEMENT_3D ( 'NONE', #214, #294, #63 ) ;
#110 = DATE_AND_TIME ( #113, #2 ) ;
#111 = ORIENTED_EDGE ( 'NONE', *, *, #274, .T. ) ;
#112 = ORIENTED_EDGE ( 'NONE', *, *, #22, .T. ) ;
#113 = CALENDAR_DATE ( 2022, 7, 7 ) ;
#114 = ORIENTED_EDGE ( 'NONE', *, *, #100, .F. ) ;
#115 = APPROVAL_DATE_TIME ( #204, #94 ) ;
#116 = CYLINDRICAL_SURFACE ( 'NONE', #53, 7.000000000000000000 ) ;
#117 = EDGE_LOOP ( 'NONE', ( #36, #83, #299, #296 ) ) ;
#118 = ORIENTED_EDGE ( 'NONE', *, *, #146, .F. ) ;
#119 = DIRECTION ( 'NONE',  ( 0.000000000000000000, 0.000000000000000000, 1.000000000000000000 ) ) ;
#120 = EDGE_CURVE ( 'NONE', #41, #293, #126, .T. ) ;
#121 = CARTESIAN_POINT ( 'NONE',  ( 0.000000000000000000, 0.000000000000000000, 0.000000000000000000 ) ) ;
#122 = DIRECTION ( 'NONE',  ( 1.000000000000000000, 0.000000000000000000, 0.000000000000000000 ) ) ;
#123 = DIRECTION ( 'NONE',  ( 1.000000000000000000, 0.000000000000000000, 0.000000000000000000 ) ) ;
#124 = PLANE ( 'NONE',  #197 ) ;
#125 = FACE_OUTER_BOUND ( 'NONE', #150, .T. ) ;
#126 = CIRCLE ( 'NONE', #262, 0.1999999999999996503 ) ;
#127 = CC_DESIGN_APPROVAL ( #129, ( #182 ) ) ;
#128 = DIRECTION ( 'NONE',  ( 1.000000000000000000, 0.000000000000000000, 0.000000000000000000 ) ) ;
#129 = APPROVAL ( #219, 'NEURÈENÝ' ) ;
#130 = PERSON_AND_ORGANIZATION ( #105, #148 ) ;
#131 = COORDINATED_UNIVERSAL_TIME_OFFSET ( 1, 0, .AHEAD. ) ;
#132 = VERTEX_POINT ( 'NONE', #69 ) ;
#133 = PERSON_AND_ORGANIZATION ( #105, #148 ) ;
#134 =( NAMED_UNIT ( * ) PLANE_ANGLE_UNIT ( ) SI_UNIT ( $, .RADIAN. ) );
#135 = TOROIDAL_SURFACE ( 'NONE', #92, 4.200000000000000178, 0.2000000000000000111 ) ;
#136 = DIRECTION ( 'NONE',  ( -1.000000000000000000, 1.224646799147353454E-16, 0.000000000000000000 ) ) ;
#137 = EDGE_LOOP ( 'NONE', ( #114, #250, #153, #65 ) ) ;
#138 = EDGE_LOOP ( 'NONE', ( #7, #118, #93, #112 ) ) ;
#139 = AXIS2_PLACEMENT_3D ( 'NONE', #121, #12, #251 ) ;
#140 = ORIENTED_EDGE ( 'NONE', *, *, #274, .F. ) ;
#141 = ADVANCED_FACE ( 'NONE', ( #10 ), #116, .T. ) ;
#142 = DIRECTION ( 'NONE',  ( 0.000000000000000000, 0.000000000000000000, 1.000000000000000000 ) ) ;
#143 = DIRECTION ( 'NONE',  ( -0.000000000000000000, -0.000000000000000000, -1.000000000000000000 ) ) ;
#144 = FACE_OUTER_BOUND ( 'NONE', #17, .T. ) ;
#145 = DIRECTION ( 'NONE',  ( 0.000000000000000000, 0.000000000000000000, 1.000000000000000000 ) ) ;
#146 = EDGE_CURVE ( 'NONE', #55, #203, #45, .T. ) ;
#147 = DIRECTION ( 'NONE',  ( -1.000000000000000000, 0.000000000000000000, 0.000000000000000000 ) ) ;
#148 = ORGANIZATION ( 'NEURÈENÝ', 'NEURÈENÝ', '' ) ;
#149 = PERSON_AND_ORGANIZATION_ROLE ( 'creator' ) ;
#150 = EDGE_LOOP ( 'NONE', ( #222, #111 ) ) ;
#151 = DATE_AND_TIME ( #54, #207 ) ;
#152 = DATE_AND_TIME ( #291, #102 ) ;
#153 = ORIENTED_EDGE ( 'NONE', *, *, #120, .T. ) ;
#154 = ADVANCED_FACE ( 'NONE', ( #260 ), #23, .T. ) ;
#155 = CLOSED_SHELL ( 'NONE', ( #290, #158, #282, #141, #34, #277, #154, #198, #87 ) ) ;
#156 = CIRCLE ( 'NONE', #292, 4.000000000000000000 ) ;
#157 = ORIENTED_EDGE ( 'NONE', *, *, #174, .T. ) ;
#158 = ADVANCED_FACE ( 'NONE', ( #144 ), #21, .T. ) ;
#159 = CARTESIAN_POINT ( 'NONE',  ( 0.000000000000000000, 0.000000000000000000, 5.199999999999996625 ) ) ;
#160 = CALENDAR_DATE ( 2022, 7, 7 ) ;
#161 = DIRECTION ( 'NONE',  ( 0.000000000000000000, 0.000000000000000000, 1.000000000000000000 ) ) ;
#162 = VERTEX_POINT ( 'NONE', #242 ) ;
#163 = ORIENTED_EDGE ( 'NONE', *, *, #306, .F. ) ;
#164 = APPLICATION_CONTEXT ( 'configuration controlled 3d designs of mechanical parts and assemblies' ) ;
#165 = CC_DESIGN_SECURITY_CLASSIFICATION ( #14, ( #171 ) ) ;
#166 = DIRECTION ( 'NONE',  ( 1.000000000000000000, 0.000000000000000000, 0.000000000000000000 ) ) ;
#167 = FACE_OUTER_BOUND ( 'NONE', #57, .T. ) ;
#168 = EDGE_CURVE ( 'NONE', #200, #41, #190, .T. ) ;
#169 = CARTESIAN_POINT ( 'NONE',  ( 4.200000000000000178, 0.000000000000000000, 4.999999999999998224 ) ) ;
#170 = CARTESIAN_POINT ( 'NONE',  ( 7.000000000000000000, 8.572527594031473190E-16, 5.000000000000000000 ) ) ;
#171 = PRODUCT_DEFINITION_FORMATION_WITH_SPECIFIED_SOURCE ( 'LIBOVOLNÝ', '', #37, .NOT_KNOWN. ) ;
#172 = FACE_OUTER_BOUND ( 'NONE', #117, .T. ) ;
#173 = DIRECTION ( 'NONE',  ( -1.000000000000000000, 0.000000000000000000, 0.000000000000000000 ) ) ;
#174 = EDGE_CURVE ( 'NONE', #66, #293, #287, .T. ) ;
#175 = APPROVAL_STATUS ( 'not_yet_approved' ) ;
#176 = VECTOR ( 'NONE', #50, 1000.000000000000000 ) ;
#177 = ORIENTED_EDGE ( 'NONE', *, *, #244, .F. ) ;
#178 = CALENDAR_DATE ( 2022, 7, 7 ) ;
#179 = APPLICATION_PROTOCOL_DEFINITION ( 'international standard', 'config_control_design', 1994, #79 ) ;
#180 = CIRCLE ( 'NONE', #263, 7.000000000000000000 ) ;
#181 = CARTESIAN_POINT ( 'NONE',  ( 0.000000000000000000, 0.000000000000000000, 0.000000000000000000 ) ) ;
#182 = PRODUCT_DEFINITION ( 'NEZNÁMÝ', '', #171, #225 ) ;
#183 = ORIENTED_EDGE ( 'NONE', *, *, #295, .F. ) ;
#184 = ORIENTED_EDGE ( 'NONE', *, *, #15, .T. ) ;
#185 = AXIS2_PLACEMENT_3D ( 'NONE', #288, #215, #235 ) ;
#186 = CARTESIAN_POINT ( 'NONE',  ( 0.000000000000000000, 0.000000000000000000, 5.199999999999996625 ) ) ;
#187 = CARTESIAN_POINT ( 'NONE',  ( 0.000000000000000000, 0.000000000000000000, 5.000000000000000000 ) ) ;
#188 = LINE ( 'NONE', #170, #283 ) ;
#189 = CARTESIAN_POINT ( 'NONE',  ( -7.000000000000000000, 0.000000000000000000, 0.000000000000000000 ) ) ;
#190 = LINE ( 'NONE', #286, #176 ) ;
#191 = AXIS2_PLACEMENT_3D ( 'NONE', #187, #91, #166 ) ;
#192 = CARTESIAN_POINT ( 'NONE',  ( 0.000000000000000000, 0.000000000000000000, 5.199999999999996625 ) ) ;
#193 = APPROVAL_PERSON_ORGANIZATION ( #223, #94, #84 ) ;
#194 = DIRECTION ( 'NONE',  ( 0.000000000000000000, 0.000000000000000000, 1.000000000000000000 ) ) ;
#195 = APPROVAL_ROLE ( '' ) ;
#196 = COORDINATED_UNIVERSAL_TIME_OFFSET ( 1, 0, .AHEAD. ) ;
#197 = AXIS2_PLACEMENT_3D ( 'NONE', #1, #78, #76 ) ;
#198 = ADVANCED_FACE ( 'NONE', ( #125 ), #124, .T. ) ;
#199 = PERSON_AND_ORGANIZATION_ROLE ( 'classification_officer' ) ;
#200 = VERTEX_POINT ( 'NONE', #19 ) ;
#201 = APPROVAL_STATUS ( 'not_yet_approved' ) ;
#202 = PERSON_AND_ORGANIZATION_ROLE ( 'design_supplier' ) ;
#203 = VERTEX_POINT ( 'NONE', #217 ) ;
#204 = DATE_AND_TIME ( #160, #61 ) ;
#205 = FACE_BOUND ( 'NONE', #279, .T. ) ;
#206 = CARTESIAN_POINT ( 'NONE',  ( -4.000000000000000000, 0.000000000000000000, 105.0000000000000142 ) ) ;
#207 = LOCAL_TIME ( 14, 35, 4.000000000000000000, #131 ) ;
#208 = CARTESIAN_POINT ( 'NONE',  ( 4.000000000000000000, 4.898587196589412829E-16, 5.199999999999996625 ) ) ;
#209 = EDGE_LOOP ( 'NONE', ( #177, #230, #59, #303 ) ) ;
#210 = VERTEX_POINT ( 'NONE', #74 ) ;
#211 = VECTOR ( 'NONE', #16, 1000.000000000000000 ) ;
#212 = AXIS2_PLACEMENT_3D ( 'NONE', #101, #44, #122 ) ;
#213 = DIRECTION ( 'NONE',  ( -1.000000000000000000, 0.000000000000000000, 0.000000000000000000 ) ) ;
#214 = CARTESIAN_POINT ( 'NONE',  ( 0.000000000000000000, 0.000000000000000000, 105.0000000000000142 ) ) ;
#215 = DIRECTION ( 'NONE',  ( 0.000000000000000000, 0.000000000000000000, 1.000000000000000000 ) ) ;
#216 = CIRCLE ( 'NONE', #256, 0.1999999999999996503 ) ;
#217 = CARTESIAN_POINT ( 'NONE',  ( 7.000000000000000000, 8.572527594031473190E-16, 5.000000000000000000 ) ) ;
#218 = AXIS2_PLACEMENT_3D ( 'NONE', #3, #52, #128 ) ;
#219 = APPROVAL_STATUS ( 'not_yet_approved' ) ;
#220 = CC_DESIGN_PERSON_AND_ORGANIZATION_ASSIGNMENT ( #130, #199, ( #14 ) ) ;
#221 = PERSON_AND_ORGANIZATION ( #105, #148 ) ;
#222 = ORIENTED_EDGE ( 'NONE', *, *, #306, .T. ) ;
#223 = PERSON_AND_ORGANIZATION ( #105, #148 ) ;
#224 = PERSON_AND_ORGANIZATION ( #105, #148 ) ;
#225 = DESIGN_CONTEXT ( 'detailed design', #79, 'design' ) ;
#226 = ORIENTED_EDGE ( 'NONE', *, *, #64, .F. ) ;
#227 = CARTESIAN_POINT ( 'NONE',  ( 0.000000000000000000, 0.000000000000000000, 5.000000000000000000 ) ) ;
#228 = FACE_OUTER_BOUND ( 'NONE', #137, .T. ) ;
#229 = COORDINATED_UNIVERSAL_TIME_OFFSET ( 1, 0, .AHEAD. ) ;
#230 = ORIENTED_EDGE ( 'NONE', *, *, #100, .T. ) ;
#231 = CC_DESIGN_APPROVAL ( #94, ( #14 ) ) ;
#232 = FACE_OUTER_BOUND ( 'NONE', #62, .T. ) ;
#233 = CC_DESIGN_PERSON_AND_ORGANIZATION_ASSIGNMENT ( #221, #26, ( #37 ) ) ;
#234 = DIRECTION ( 'NONE',  ( 0.000000000000000000, 0.000000000000000000, 1.000000000000000000 ) ) ;
#235 = DIRECTION ( 'NONE',  ( 1.000000000000000000, 0.000000000000000000, -0.000000000000000000 ) ) ;
#236 = TOROIDAL_SURFACE ( 'NONE', #40, 4.200000000000000178, 0.2000000000000000111 ) ;
#237 = AXIS2_PLACEMENT_3D ( 'NONE', #284, #18, #213 ) ;
#238 = DIRECTION ( 'NONE',  ( -0.000000000000000000, -0.000000000000000000, -1.000000000000000000 ) ) ;
#239 = CARTESIAN_POINT ( 'NONE',  ( 0.000000000000000000, 0.000000000000000000, 5.000000000000000000 ) ) ;
#240 = EDGE_CURVE ( 'NONE', #203, #210, #188, .T. ) ;
#241 = DIRECTION ( 'NONE',  ( -1.000000000000000000, 0.000000000000000000, 0.000000000000000000 ) ) ;
#242 = CARTESIAN_POINT ( 'NONE',  ( -4.000000000000000000, 0.000000000000000000, 5.199999999999996625 ) ) ;
#243 = PERSON_AND_ORGANIZATION ( #105, #148 ) ;
#244 = EDGE_CURVE ( 'NONE', #162, #41, #156, .T. ) ;
#245 = ORIENTED_EDGE ( 'NONE', *, *, #244, .T. ) ;
#246 = DATE_TIME_ROLE ( 'creation_date' ) ;
#247 = ORIENTED_EDGE ( 'NONE', *, *, #168, .T. ) ;
#248 = DATE_TIME_ROLE ( 'classification_date' ) ;
#249 = APPROVAL_PERSON_ORGANIZATION ( #31, #129, #195 ) ;
#250 = ORIENTED_EDGE ( 'NONE', *, *, #96, .F. ) ;
#251 = DIRECTION ( 'NONE',  ( 1.000000000000000000, 0.000000000000000000, 0.000000000000000000 ) ) ;
#252 = AXIS2_PLACEMENT_3D ( 'NONE', #278, #119, #95 ) ;
#253 = ORIENTED_EDGE ( 'NONE', *, *, #96, .T. ) ;
#254 = CARTESIAN_POINT ( 'NONE',  ( -7.000000000000000000, 0.000000000000000000, 5.000000000000000000 ) ) ;
#255 = VERTEX_POINT ( 'NONE', #189 ) ;
#256 = AXIS2_PLACEMENT_3D ( 'NONE', #38, #11, #136 ) ;
#257 = AXIS2_PLACEMENT_3D ( 'NONE', #99, #143, #173 ) ;
#258 = SHAPE_DEFINITION_REPRESENTATION ( #88, #9 ) ;
#259 = DIRECTION ( 'NONE',  ( 0.000000000000000000, -1.000000000000000000, 0.000000000000000000 ) ) ;
#260 = FACE_OUTER_BOUND ( 'NONE', #25, .T. ) ;
#261 = CARTESIAN_POINT ( 'NONE',  ( 0.000000000000000000, 0.000000000000000000, 0.000000000000000000 ) ) ;
#262 = AXIS2_PLACEMENT_3D ( 'NONE', #71, #259, #42 ) ;
#263 = AXIS2_PLACEMENT_3D ( 'NONE', #261, #80, #47 ) ;
#264 = LINE ( 'NONE', #51, #5 ) ;
#265 = EDGE_CURVE ( 'NONE', #55, #255, #264, .T. ) ;
#266 = DIRECTION ( 'NONE',  ( -0.000000000000000000, -0.000000000000000000, -1.000000000000000000 ) ) ;
#267 = DIRECTION ( 'NONE',  ( 1.000000000000000000, 0.000000000000000000, 0.000000000000000000 ) ) ;
#268 = CC_DESIGN_PERSON_AND_ORGANIZATION_ASSIGNMENT ( #243, #56, ( #182 ) ) ;
#269 = AXIS2_PLACEMENT_3D ( 'NONE', #239, #145, #267 ) ;
#270 = PERSON_AND_ORGANIZATION ( #105, #148 ) ;
#271 = CIRCLE ( 'NONE', #139, 7.000000000000000000 ) ;
#272 = ORIENTED_EDGE ( 'NONE', *, *, #73, .T. ) ;
#273 = AXIS2_PLACEMENT_3D ( 'NONE', #285, #238, #241 ) ;
#274 = EDGE_CURVE ( 'NONE', #200, #132, #98, .T. ) ;
#275 = APPLICATION_PROTOCOL_DEFINITION ( 'international standard', 'config_control_design', 1994, #164 ) ;
#276 = DIRECTION ( 'NONE',  ( 1.000000000000000000, 0.000000000000000000, 0.000000000000000000 ) ) ;
#277 = ADVANCED_FACE ( 'NONE', ( #167 ), #20, .F. ) ;
#278 = CARTESIAN_POINT ( 'NONE',  ( 0.000000000000000000, 0.000000000000000000, 5.000000000000000000 ) ) ;
#279 = EDGE_LOOP ( 'NONE', ( #184, #157 ) ) ;
#280 = LINE ( 'NONE', #206, #211 ) ;
#281 = DIRECTION ( 'NONE',  ( 1.000000000000000000, 0.000000000000000000, 0.000000000000000000 ) ) ;
#282 = ADVANCED_FACE ( 'NONE', ( #172 ), #97, .T. ) ;
#283 = VECTOR ( 'NONE', #75, 1000.000000000000000 ) ;
#284 = CARTESIAN_POINT ( 'NONE',  ( 0.000000000000000000, 0.000000000000000000, 5.000000000000000000 ) ) ;
#285 = CARTESIAN_POINT ( 'NONE',  ( 0.000000000000000000, 0.000000000000000000, 105.0000000000000142 ) ) ;
#286 = CARTESIAN_POINT ( 'NONE',  ( 4.000000000000000000, 4.898587196589412829E-16, 105.0000000000000142 ) ) ;
#287 = CIRCLE ( 'NONE', #212, 4.200000000000000178 ) ;
#288 = CARTESIAN_POINT ( 'NONE',  ( 0.000000000000000000, 0.000000000000000000, 0.000000000000000000 ) ) ;
#289 = DIRECTION ( 'NONE',  ( 1.000000000000000000, 0.000000000000000000, 0.000000000000000000 ) ) ;
#290 = ADVANCED_FACE ( 'NONE', ( #305 ), #135, .F. ) ;
#291 = CALENDAR_DATE ( 2022, 7, 7 ) ;
#292 = AXIS2_PLACEMENT_3D ( 'NONE', #192, #142, #123 ) ;
#293 = VERTEX_POINT ( 'NONE', #169 ) ;
#294 = DIRECTION ( 'NONE',  ( 0.000000000000000000, 0.000000000000000000, 1.000000000000000000 ) ) ;
#295 = EDGE_CURVE ( 'NONE', #210, #255, #180, .T. ) ;
#296 = ORIENTED_EDGE ( 'NONE', *, *, #265, .F. ) ;
#297 = DIRECTION ( 'NONE',  ( 1.000000000000000000, 0.000000000000000000, 0.000000000000000000 ) ) ;
#298 = CC_DESIGN_PERSON_AND_ORGANIZATION_ASSIGNMENT ( #224, #149, ( #171 ) ) ;
#299 = ORIENTED_EDGE ( 'NONE', *, *, #295, .T. ) ;
#300 = PLANE ( 'NONE',  #85 ) ;
#301 = AXIS2_PLACEMENT_3D ( 'NONE', #181, #58, #297 ) ;
#302 = ORIENTED_EDGE ( 'NONE', *, *, #146, .T. ) ;
#303 = ORIENTED_EDGE ( 'NONE', *, *, #120, .F. ) ;
#304 = DIRECTION ( 'NONE',  ( -0.000000000000000000, -0.000000000000000000, -1.000000000000000000 ) ) ;
#305 = FACE_OUTER_BOUND ( 'NONE', #209, .T. ) ;
#306 = EDGE_CURVE ( 'NONE', #132, #200, #67, .T. ) ;
#307 = CARTESIAN_POINT ( 'NONE',  ( 0.000000000000000000, 0.000000000000000000, 5.000000000000000000 ) ) ;
ENDSEC;
END-ISO-10303-21;
