ISO-10303-21;
HEADER;
FILE_DESCRIPTION (( 'STEP AP203' ),
    '1' );
FILE_NAME ('2149.STEP',
    '2022-07-07T12:36:28',
    ( '' ),
    ( '' ),
    'SwSTEP 2.0',
    'SolidWorks 2019',
    '' );
FILE_SCHEMA (( 'CONFIG_CONTROL_DESIGN' ));
ENDSEC;

DATA;
#1 = DIRECTION ( 'NONE',  ( 1.000000000000000000, 0.000000000000000000, -0.000000000000000000 ) ) ;
#2 = APPLICATION_PROTOCOL_DEFINITION ( 'international standard', 'config_control_design', 1994, #76 ) ;
#3 = CARTESIAN_POINT ( 'NONE',  ( 0.000000000000000000, 0.000000000000000000, 105.0000000000000142 ) ) ;
#4 = APPLICATION_PROTOCOL_DEFINITION ( 'international standard', 'config_control_design', 1994, #203 ) ;
#5 = AXIS2_PLACEMENT_3D ( 'NONE', #304, #186, #284 ) ;
#6 = PERSON_AND_ORGANIZATION_ROLE ( 'classification_officer' ) ;
#7 = EDGE_LOOP ( 'NONE', ( #51, #9, #56, #159 ) ) ;
#8 = ORIENTED_EDGE ( 'NONE', *, *, #208, .F. ) ;
#9 = ORIENTED_EDGE ( 'NONE', *, *, #251, .F. ) ;
#10 = EDGE_LOOP ( 'NONE', ( #274, #247 ) ) ;
#11 = SECURITY_CLASSIFICATION ( '', '', #169 ) ;
#12 = CARTESIAN_POINT ( 'NONE',  ( -3.949999999999999734, 4.837354856632044071E-16, 5.199999999999996625 ) ) ;
#13 = LINE ( 'NONE', #104, #110 ) ;
#14 = CARTESIAN_POINT ( 'NONE',  ( 6.000000000000000888, 7.347880794884120722E-16, 5.000000000000000000 ) ) ;
#15 =( NAMED_UNIT ( * ) SI_UNIT ( $, .STERADIAN. ) SOLID_ANGLE_UNIT ( ) );
#16 = CARTESIAN_POINT ( 'NONE',  ( -3.949999999999999734, 4.837354856632044071E-16, 4.999999999999998224 ) ) ;
#17 = CC_DESIGN_SECURITY_CLASSIFICATION ( #11, ( #207 ) ) ;
#18 = APPROVAL_STATUS ( 'not_yet_approved' ) ;
#19 = DIRECTION ( 'NONE',  ( 0.000000000000000000, 0.000000000000000000, 1.000000000000000000 ) ) ;
#20 = CIRCLE ( 'NONE', #195, 6.000000000000000888 ) ;
#21 = CARTESIAN_POINT ( 'NONE',  ( 0.000000000000000000, 0.000000000000000000, 105.0000000000000142 ) ) ;
#22 = DIRECTION ( 'NONE',  ( -0.000000000000000000, -0.000000000000000000, -1.000000000000000000 ) ) ;
#23 = ORGANIZATION ( 'NEURÈENÝ', 'NEURÈENÝ', '' ) ;
#24 = CARTESIAN_POINT ( 'NONE',  ( 0.000000000000000000, 0.000000000000000000, 5.000000000000000000 ) ) ;
#25 = CALENDAR_DATE ( 2022, 7, 7 ) ;
#26 = APPROVAL ( #18, 'NEURÈENÝ' ) ;
#27 = FACE_OUTER_BOUND ( 'NONE', #178, .T. ) ;
#28 = PRODUCT_DEFINITION_SHAPE ( 'NONE', 'NONE',  #269 ) ;
#29 = CARTESIAN_POINT ( 'NONE',  ( 0.000000000000000000, 0.000000000000000000, 5.199999999999996625 ) ) ;
#30 = CALENDAR_DATE ( 2022, 7, 7 ) ;
#31 = AXIS2_PLACEMENT_3D ( 'NONE', #38, #200, #54 ) ;
#32 = ORIENTED_EDGE ( 'NONE', *, *, #138, .F. ) ;
#33 = EDGE_CURVE ( 'NONE', #68, #299, #145, .T. ) ;
#34 = EDGE_LOOP ( 'NONE', ( #150, #53 ) ) ;
#35 = ORIENTED_EDGE ( 'NONE', *, *, #65, .T. ) ;
#36 = DIRECTION ( 'NONE',  ( -1.000000000000000000, 0.000000000000000000, 0.000000000000000000 ) ) ;
#37 = ORIENTED_EDGE ( 'NONE', *, *, #280, .T. ) ;
#38 = CARTESIAN_POINT ( 'NONE',  ( 0.000000000000000000, 0.000000000000000000, 0.000000000000000000 ) ) ;
#39 = APPROVAL_DATE_TIME ( #46, #175 ) ;
#40 = CARTESIAN_POINT ( 'NONE',  ( 0.000000000000000000, 0.000000000000000000, 5.199999999999996625 ) ) ;
#41 = SHAPE_DEFINITION_REPRESENTATION ( #28, #158 ) ;
#42 = DIRECTION ( 'NONE',  ( 0.000000000000000000, 0.000000000000000000, -1.000000000000000000 ) ) ;
#43 = DIRECTION ( 'NONE',  ( -0.000000000000000000, -0.000000000000000000, -1.000000000000000000 ) ) ;
#44 = CC_DESIGN_DATE_AND_TIME_ASSIGNMENT ( #59, #300, ( #269 ) ) ;
#45 = DIRECTION ( 'NONE',  ( -0.000000000000000000, -0.000000000000000000, -1.000000000000000000 ) ) ;
#46 = DATE_AND_TIME ( #30, #144 ) ;
#47 = CARTESIAN_POINT ( 'NONE',  ( 0.000000000000000000, 0.000000000000000000, 0.000000000000000000 ) ) ;
#48 = VERTEX_POINT ( 'NONE', #225 ) ;
#49 = ORIENTED_EDGE ( 'NONE', *, *, #235, .F. ) ;
#50 = EDGE_CURVE ( 'NONE', #244, #277, #181, .T. ) ;
#51 = ORIENTED_EDGE ( 'NONE', *, *, #101, .F. ) ;
#52 = CARTESIAN_POINT ( 'NONE',  ( 3.750000000000000000, 4.592425496802573972E-16, 105.0000000000000142 ) ) ;
#53 = ORIENTED_EDGE ( 'NONE', *, *, #235, .T. ) ;
#54 = DIRECTION ( 'NONE',  ( 1.000000000000000000, 0.000000000000000000, 0.000000000000000000 ) ) ;
#55 = EDGE_CURVE ( 'NONE', #277, #244, #187, .T. ) ;
#56 = ORIENTED_EDGE ( 'NONE', *, *, #128, .T. ) ;
#57 =( NAMED_UNIT ( * ) PLANE_ANGLE_UNIT ( ) SI_UNIT ( $, .RADIAN. ) );
#58 = CARTESIAN_POINT ( 'NONE',  ( 0.000000000000000000, 0.000000000000000000, 0.000000000000000000 ) ) ;
#59 = DATE_AND_TIME ( #278, #72 ) ;
#60 = DIRECTION ( 'NONE',  ( 1.000000000000000000, 0.000000000000000000, 0.000000000000000000 ) ) ;
#61 = CC_DESIGN_APPROVAL ( #93, ( #269 ) ) ;
#62 = PLANE ( 'NONE',  #179 ) ;
#63 = DIRECTION ( 'NONE',  ( 0.000000000000000000, 0.000000000000000000, 1.000000000000000000 ) ) ;
#64 = PERSON_AND_ORGANIZATION ( #245, #23 ) ;
#65 = EDGE_CURVE ( 'NONE', #299, #68, #90, .T. ) ;
#66 = CYLINDRICAL_SURFACE ( 'NONE', #237, 3.750000000000000000 ) ;
#67 = VERTEX_POINT ( 'NONE', #229 ) ;
#68 = VERTEX_POINT ( 'NONE', #16 ) ;
#69 = CIRCLE ( 'NONE', #161, 3.750000000000000000 ) ;
#70 = EDGE_LOOP ( 'NONE', ( #199, #99, #221, #271 ) ) ;
#71 = EDGE_LOOP ( 'NONE', ( #35, #268 ) ) ;
#72 = LOCAL_TIME ( 14, 36, 28.00000000000000000, #107 ) ;
#73 = LINE ( 'NONE', #52, #213 ) ;
#74 = DESIGN_CONTEXT ( 'detailed design', #76, 'design' ) ;
#75 = CARTESIAN_POINT ( 'NONE',  ( 0.000000000000000000, 0.000000000000000000, 5.000000000000000000 ) ) ;
#76 = APPLICATION_CONTEXT ( 'configuration controlled 3d designs of mechanical parts and assemblies' ) ;
#77 = ORIENTED_EDGE ( 'NONE', *, *, #280, .F. ) ;
#78 = CC_DESIGN_PERSON_AND_ORGANIZATION_ASSIGNMENT ( #253, #302, ( #88 ) ) ;
#79 = ADVANCED_FACE ( 'NONE', ( #209 ), #307, .F. ) ;
#80 = AXIS2_PLACEMENT_3D ( 'NONE', #29, #142, #264 ) ;
#81 = DIRECTION ( 'NONE',  ( 1.000000000000000000, 0.000000000000000000, 0.000000000000000000 ) ) ;
#82 = PERSON_AND_ORGANIZATION ( #245, #23 ) ;
#83 = VERTEX_POINT ( 'NONE', #14 ) ;
#84 = CALENDAR_DATE ( 2022, 7, 7 ) ;
#85 = CARTESIAN_POINT ( 'NONE',  ( -6.000000000000000888, 0.000000000000000000, 5.000000000000000000 ) ) ;
#86 = CARTESIAN_POINT ( 'NONE',  ( 0.000000000000000000, 0.000000000000000000, 5.000000000000000000 ) ) ;
#87 = CC_DESIGN_PERSON_AND_ORGANIZATION_ASSIGNMENT ( #182, #215, ( #269 ) ) ;
#88 = PRODUCT ( '2149', '2149', '', ( #265 ) ) ;
#89 = CARTESIAN_POINT ( 'NONE',  ( 3.949999999999999734, 0.000000000000000000, 5.199999999999996625 ) ) ;
#90 = CIRCLE ( 'NONE', #155, 3.949999999999999734 ) ;
#91 = DIRECTION ( 'NONE',  ( 0.000000000000000000, -1.000000000000000000, 0.000000000000000000 ) ) ;
#92 = PERSON_AND_ORGANIZATION ( #245, #23 ) ;
#93 = APPROVAL ( #135, 'NEURÈENÝ' ) ;
#94 = CARTESIAN_POINT ( 'NONE',  ( 0.000000000000000000, 0.000000000000000000, 0.000000000000000000 ) ) ;
#95 = PERSON_AND_ORGANIZATION ( #245, #23 ) ;
#96 = CC_DESIGN_DATE_AND_TIME_ASSIGNMENT ( #162, #97, ( #11 ) ) ;
#97 = DATE_TIME_ROLE ( 'classification_date' ) ;
#98 = CIRCLE ( 'NONE', #102, 3.750000000000000000 ) ;
#99 = ORIENTED_EDGE ( 'NONE', *, *, #138, .T. ) ;
#100 = ORIENTED_EDGE ( 'NONE', *, *, #160, .T. ) ;
#101 = EDGE_CURVE ( 'NONE', #123, #48, #73, .T. ) ;
#102 = AXIS2_PLACEMENT_3D ( 'NONE', #40, #115, #163 ) ;
#103 = DIRECTION ( 'NONE',  ( 1.224646799147353207E-16, 1.000000000000000000, -0.000000000000000000 ) ) ;
#104 = CARTESIAN_POINT ( 'NONE',  ( -3.750000000000000000, 0.000000000000000000, 105.0000000000000142 ) ) ;
#105 = ORIENTED_EDGE ( 'NONE', *, *, #116, .F. ) ;
#106 = AXIS2_PLACEMENT_3D ( 'NONE', #167, #118, #60 ) ;
#107 = COORDINATED_UNIVERSAL_TIME_OFFSET ( 1, 0, .AHEAD. ) ;
#108 = DIRECTION ( 'NONE',  ( -0.000000000000000000, -0.000000000000000000, -1.000000000000000000 ) ) ;
#109 = COORDINATED_UNIVERSAL_TIME_OFFSET ( 1, 0, .AHEAD. ) ;
#110 = VECTOR ( 'NONE', #298, 1000.000000000000000 ) ;
#111 = DIRECTION ( 'NONE',  ( -1.000000000000000000, 0.000000000000000000, 0.000000000000000000 ) ) ;
#112 = FACE_OUTER_BOUND ( 'NONE', #70, .T. ) ;
#113 = CARTESIAN_POINT ( 'NONE',  ( -6.000000000000000888, 0.000000000000000000, 5.000000000000000000 ) ) ;
#114 = CIRCLE ( 'NONE', #218, 3.750000000000000000 ) ;
#115 = DIRECTION ( 'NONE',  ( 0.000000000000000000, 0.000000000000000000, 1.000000000000000000 ) ) ;
#116 = EDGE_CURVE ( 'NONE', #67, #68, #141, .T. ) ;
#117 = DIRECTION ( 'NONE',  ( 1.000000000000000000, 0.000000000000000000, 0.000000000000000000 ) ) ;
#118 = DIRECTION ( 'NONE',  ( 0.000000000000000000, 0.000000000000000000, 1.000000000000000000 ) ) ;
#119 = CARTESIAN_POINT ( 'NONE',  ( 3.949999999999999734, 0.000000000000000000, 4.999999999999998224 ) ) ;
#120 =( GEOMETRIC_REPRESENTATION_CONTEXT ( 3 ) GLOBAL_UNCERTAINTY_ASSIGNED_CONTEXT ( ( #224 ) ) GLOBAL_UNIT_ASSIGNED_CONTEXT ( ( #233, #57, #15 ) ) REPRESENTATION_CONTEXT ( 'NONE', 'WORKASPACE' ) );
#121 = PERSON_AND_ORGANIZATION ( #245, #23 ) ;
#122 = AXIS2_PLACEMENT_3D ( 'NONE', #58, #295, #180 ) ;
#123 = VERTEX_POINT ( 'NONE', #296 ) ;
#124 = ORIENTED_EDGE ( 'NONE', *, *, #50, .T. ) ;
#125 = ADVANCED_FACE ( 'NONE', ( #154 ), #250, .T. ) ;
#126 = EDGE_LOOP ( 'NONE', ( #219, #243, #254, #8 ) ) ;
#127 = AXIS2_PLACEMENT_3D ( 'NONE', #183, #226, #256 ) ;
#128 = EDGE_CURVE ( 'NONE', #293, #67, #13, .T. ) ;
#129 = ORIENTED_EDGE ( 'NONE', *, *, #147, .F. ) ;
#130 = MANIFOLD_SOLID_BREP ( 'Zaoblit1', #297 ) ;
#131 = DIRECTION ( 'NONE',  ( 0.000000000000000000, 0.000000000000000000, 1.000000000000000000 ) ) ;
#132 = DIRECTION ( 'NONE',  ( 1.000000000000000000, 0.000000000000000000, 0.000000000000000000 ) ) ;
#133 = AXIS2_PLACEMENT_3D ( 'NONE', #24, #43, #170 ) ;
#134 = DIRECTION ( 'NONE',  ( -0.000000000000000000, -0.000000000000000000, -1.000000000000000000 ) ) ;
#135 = APPROVAL_STATUS ( 'not_yet_approved' ) ;
#136 = FACE_OUTER_BOUND ( 'NONE', #34, .T. ) ;
#137 = CARTESIAN_POINT ( 'NONE',  ( 0.000000000000000000, 0.000000000000000000, 5.000000000000000000 ) ) ;
#138 = EDGE_CURVE ( 'NONE', #83, #277, #252, .T. ) ;
#139 = DIRECTION ( 'NONE',  ( 1.000000000000000000, 0.000000000000000000, 0.000000000000000000 ) ) ;
#140 = DIRECTION ( 'NONE',  ( 1.000000000000000000, 0.000000000000000000, 0.000000000000000000 ) ) ;
#141 = CIRCLE ( 'NONE', #204, 0.1999999999999996503 ) ;
#142 = DIRECTION ( 'NONE',  ( 0.000000000000000000, 0.000000000000000000, 1.000000000000000000 ) ) ;
#143 = APPROVAL_DATE_TIME ( #228, #93 ) ;
#144 = LOCAL_TIME ( 14, 36, 28.00000000000000000, #255 ) ;
#145 = CIRCLE ( 'NONE', #127, 3.949999999999999734 ) ;
#146 = CC_DESIGN_APPROVAL ( #26, ( #11 ) ) ;
#147 = EDGE_CURVE ( 'NONE', #249, #83, #20, .T. ) ;
#148 = ORIENTED_EDGE ( 'NONE', *, *, #33, .F. ) ;
#149 = VECTOR ( 'NONE', #45, 1000.000000000000000 ) ;
#150 = ORIENTED_EDGE ( 'NONE', *, *, #251, .T. ) ;
#151 = DIRECTION ( 'NONE',  ( -0.000000000000000000, -0.000000000000000000, -1.000000000000000000 ) ) ;
#152 = AXIS2_PLACEMENT_3D ( 'NONE', #94, #234, #1 ) ;
#153 = TOROIDAL_SURFACE ( 'NONE', #80, 3.949999999999999734, 0.2000000000000000111 ) ;
#154 = FACE_OUTER_BOUND ( 'NONE', #7, .T. ) ;
#155 = AXIS2_PLACEMENT_3D ( 'NONE', #75, #108, #132 ) ;
#156 = ORIENTED_EDGE ( 'NONE', *, *, #50, .F. ) ;
#157 = ADVANCED_FACE ( 'NONE', ( #27 ), #210, .T. ) ;
#158 = ADVANCED_BREP_SHAPE_REPRESENTATION ( '2149', ( #130, #174 ), #120 ) ;
#159 = ORIENTED_EDGE ( 'NONE', *, *, #285, .T. ) ;
#160 = EDGE_CURVE ( 'NONE', #249, #244, #193, .T. ) ;
#161 = AXIS2_PLACEMENT_3D ( 'NONE', #21, #19, #139 ) ;
#162 = DATE_AND_TIME ( #289, #257 ) ;
#163 = DIRECTION ( 'NONE',  ( 1.000000000000000000, 0.000000000000000000, 0.000000000000000000 ) ) ;
#164 = PLANE ( 'NONE',  #152 ) ;
#165 = DIRECTION ( 'NONE',  ( 1.000000000000000000, 0.000000000000000000, 0.000000000000000000 ) ) ;
#166 = VECTOR ( 'NONE', #134, 1000.000000000000000 ) ;
#167 = CARTESIAN_POINT ( 'NONE',  ( 0.000000000000000000, 0.000000000000000000, 5.000000000000000000 ) ) ;
#168 = CC_DESIGN_PERSON_AND_ORGANIZATION_ASSIGNMENT ( #92, #191, ( #207 ) ) ;
#169 = SECURITY_CLASSIFICATION_LEVEL ( 'unclassified' ) ;
#170 = DIRECTION ( 'NONE',  ( -1.000000000000000000, 0.000000000000000000, 0.000000000000000000 ) ) ;
#171 = COORDINATED_UNIVERSAL_TIME_OFFSET ( 1, 0, .AHEAD. ) ;
#172 = ORIENTED_EDGE ( 'NONE', *, *, #208, .T. ) ;
#173 = ORIENTED_EDGE ( 'NONE', *, *, #101, .T. ) ;
#174 = AXIS2_PLACEMENT_3D ( 'NONE', #47, #131, #117 ) ;
#175 = APPROVAL ( #241, 'NEURÈENÝ' ) ;
#176 = CARTESIAN_POINT ( 'NONE',  ( 0.000000000000000000, 0.000000000000000000, 5.199999999999996625 ) ) ;
#177 = CARTESIAN_POINT ( 'NONE',  ( 0.000000000000000000, 0.000000000000000000, 105.0000000000000142 ) ) ;
#178 = EDGE_LOOP ( 'NONE', ( #32, #129, #100, #124 ) ) ;
#179 = AXIS2_PLACEMENT_3D ( 'NONE', #303, #306, #190 ) ;
#180 = DIRECTION ( 'NONE',  ( 1.000000000000000000, 0.000000000000000000, 0.000000000000000000 ) ) ;
#181 = CIRCLE ( 'NONE', #31, 6.000000000000000888 ) ;
#182 = PERSON_AND_ORGANIZATION ( #245, #23 ) ;
#183 = CARTESIAN_POINT ( 'NONE',  ( 0.000000000000000000, 0.000000000000000000, 5.000000000000000000 ) ) ;
#184 = DATE_AND_TIME ( #84, #287 ) ;
#185 = CARTESIAN_POINT ( 'NONE',  ( 0.000000000000000000, 0.000000000000000000, 105.0000000000000142 ) ) ;
#186 = DIRECTION ( 'NONE',  ( 0.000000000000000000, 0.000000000000000000, 1.000000000000000000 ) ) ;
#187 = CIRCLE ( 'NONE', #122, 6.000000000000000888 ) ;
#188 = FACE_BOUND ( 'NONE', #71, .T. ) ;
#189 = ADVANCED_FACE ( 'NONE', ( #216 ), #66, .T. ) ;
#190 = DIRECTION ( 'NONE',  ( 1.000000000000000000, 0.000000000000000000, -0.000000000000000000 ) ) ;
#191 = PERSON_AND_ORGANIZATION_ROLE ( 'creator' ) ;
#192 = AXIS2_PLACEMENT_3D ( 'NONE', #185, #63, #165 ) ;
#193 = LINE ( 'NONE', #113, #166 ) ;
#194 = APPROVAL_ROLE ( '' ) ;
#195 = AXIS2_PLACEMENT_3D ( 'NONE', #137, #236, #214 ) ;
#196 = APPROVAL_ROLE ( '' ) ;
#197 = CC_DESIGN_APPROVAL ( #175, ( #207 ) ) ;
#198 = EDGE_CURVE ( 'NONE', #83, #249, #305, .T. ) ;
#199 = ORIENTED_EDGE ( 'NONE', *, *, #198, .F. ) ;
#200 = DIRECTION ( 'NONE',  ( 0.000000000000000000, 0.000000000000000000, 1.000000000000000000 ) ) ;
#201 = LOCAL_TIME ( 14, 36, 28.00000000000000000, #171 ) ;
#202 = DIRECTION ( 'NONE',  ( -1.000000000000000000, 1.224646799147353454E-16, 0.000000000000000000 ) ) ;
#203 = APPLICATION_CONTEXT ( 'configuration controlled 3d designs of mechanical parts and assemblies' ) ;
#204 = AXIS2_PLACEMENT_3D ( 'NONE', #12, #103, #202 ) ;
#205 = DIRECTION ( 'NONE',  ( 0.000000000000000000, 0.000000000000000000, 1.000000000000000000 ) ) ;
#206 = CARTESIAN_POINT ( 'NONE',  ( 6.000000000000000888, 7.347880794884120722E-16, 5.000000000000000000 ) ) ;
#207 = PRODUCT_DEFINITION_FORMATION_WITH_SPECIFIED_SOURCE ( 'LIBOVOLNÝ', '', #88, .NOT_KNOWN. ) ;
#208 = EDGE_CURVE ( 'NONE', #48, #299, #270, .T. ) ;
#209 = FACE_OUTER_BOUND ( 'NONE', #267, .T. ) ;
#210 = CYLINDRICAL_SURFACE ( 'NONE', #246, 6.000000000000000888 ) ;
#211 = APPROVAL_PERSON_ORGANIZATION ( #95, #93, #194 ) ;
#212 = FACE_OUTER_BOUND ( 'NONE', #266, .T. ) ;
#213 = VECTOR ( 'NONE', #223, 1000.000000000000000 ) ;
#214 = DIRECTION ( 'NONE',  ( 1.000000000000000000, 0.000000000000000000, 0.000000000000000000 ) ) ;
#215 = PERSON_AND_ORGANIZATION_ROLE ( 'creator' ) ;
#216 = FACE_OUTER_BOUND ( 'NONE', #301, .T. ) ;
#217 = COORDINATED_UNIVERSAL_TIME_OFFSET ( 1, 0, .AHEAD. ) ;
#218 = AXIS2_PLACEMENT_3D ( 'NONE', #286, #259, #140 ) ;
#219 = ORIENTED_EDGE ( 'NONE', *, *, #285, .F. ) ;
#220 = CC_DESIGN_PERSON_AND_ORGANIZATION_ASSIGNMENT ( #121, #6, ( #11 ) ) ;
#221 = ORIENTED_EDGE ( 'NONE', *, *, #55, .T. ) ;
#222 = ADVANCED_FACE ( 'NONE', ( #212 ), #164, .F. ) ;
#223 = DIRECTION ( 'NONE',  ( -0.000000000000000000, -0.000000000000000000, -1.000000000000000000 ) ) ;
#224 = UNCERTAINTY_MEASURE_WITH_UNIT (LENGTH_MEASURE( 1.000000000000000082E-05 ), #233, 'distance_accuracy_value', 'NONE');
#225 = CARTESIAN_POINT ( 'NONE',  ( 3.750000000000000000, 4.592425496802573972E-16, 5.199999999999996625 ) ) ;
#226 = DIRECTION ( 'NONE',  ( -0.000000000000000000, -0.000000000000000000, -1.000000000000000000 ) ) ;
#227 = ADVANCED_FACE ( 'NONE', ( #188, #232 ), #62, .T. ) ;
#228 = DATE_AND_TIME ( #25, #201 ) ;
#229 = CARTESIAN_POINT ( 'NONE',  ( -3.750000000000000000, 0.000000000000000000, 5.199999999999996625 ) ) ;
#230 = CIRCLE ( 'NONE', #192, 3.750000000000000000 ) ;
#231 = PERSON_AND_ORGANIZATION ( #245, #23 ) ;
#232 = FACE_OUTER_BOUND ( 'NONE', #10, .T. ) ;
#233 =( LENGTH_UNIT ( ) NAMED_UNIT ( * ) SI_UNIT ( .MILLI., .METRE. ) );
#234 = DIRECTION ( 'NONE',  ( 0.000000000000000000, 0.000000000000000000, 1.000000000000000000 ) ) ;
#235 = EDGE_CURVE ( 'NONE', #123, #293, #69, .T. ) ;
#236 = DIRECTION ( 'NONE',  ( 0.000000000000000000, 0.000000000000000000, 1.000000000000000000 ) ) ;
#237 = AXIS2_PLACEMENT_3D ( 'NONE', #3, #282, #238 ) ;
#238 = DIRECTION ( 'NONE',  ( -1.000000000000000000, 0.000000000000000000, 0.000000000000000000 ) ) ;
#239 = CARTESIAN_POINT ( 'NONE',  ( -3.750000000000000000, 0.000000000000000000, 105.0000000000000142 ) ) ;
#240 = ADVANCED_FACE ( 'NONE', ( #136 ), #288, .T. ) ;
#241 = APPROVAL_STATUS ( 'not_yet_approved' ) ;
#242 = AXIS2_PLACEMENT_3D ( 'NONE', #89, #91, #42 ) ;
#243 = ORIENTED_EDGE ( 'NONE', *, *, #116, .T. ) ;
#244 = VERTEX_POINT ( 'NONE', #260 ) ;
#245 = PERSON ( 'NEURÈENÝ', 'NEURÈENÝ', 'NEURÈENÝ', ('NEURÈENÝ'), ('NEURÈENÝ'), ('NEURÈENÝ') ) ;
#246 = AXIS2_PLACEMENT_3D ( 'NONE', #86, #22, #111 ) ;
#247 = ORIENTED_EDGE ( 'NONE', *, *, #198, .T. ) ;
#248 = AXIS2_PLACEMENT_3D ( 'NONE', #176, #205, #81 ) ;
#249 = VERTEX_POINT ( 'NONE', #85 ) ;
#250 = CYLINDRICAL_SURFACE ( 'NONE', #290, 3.750000000000000000 ) ;
#251 = EDGE_CURVE ( 'NONE', #293, #123, #230, .T. ) ;
#252 = LINE ( 'NONE', #206, #149 ) ;
#253 = PERSON_AND_ORGANIZATION ( #245, #23 ) ;
#254 = ORIENTED_EDGE ( 'NONE', *, *, #65, .F. ) ;
#255 = COORDINATED_UNIVERSAL_TIME_OFFSET ( 1, 0, .AHEAD. ) ;
#256 = DIRECTION ( 'NONE',  ( 1.000000000000000000, 0.000000000000000000, 0.000000000000000000 ) ) ;
#257 = LOCAL_TIME ( 14, 36, 28.00000000000000000, #217 ) ;
#258 = APPROVAL_DATE_TIME ( #184, #26 ) ;
#259 = DIRECTION ( 'NONE',  ( 0.000000000000000000, 0.000000000000000000, 1.000000000000000000 ) ) ;
#260 = CARTESIAN_POINT ( 'NONE',  ( -6.000000000000000888, 0.000000000000000000, 0.000000000000000000 ) ) ;
#261 = CYLINDRICAL_SURFACE ( 'NONE', #133, 6.000000000000000888 ) ;
#262 = ADVANCED_FACE ( 'NONE', ( #112 ), #261, .T. ) ;
#263 = FACE_OUTER_BOUND ( 'NONE', #126, .T. ) ;
#264 = DIRECTION ( 'NONE',  ( 1.000000000000000000, 0.000000000000000000, 0.000000000000000000 ) ) ;
#265 = MECHANICAL_CONTEXT ( 'NONE', #203, 'mechanical' ) ;
#266 = EDGE_LOOP ( 'NONE', ( #156, #273 ) ) ;
#267 = EDGE_LOOP ( 'NONE', ( #105, #77, #172, #148 ) ) ;
#268 = ORIENTED_EDGE ( 'NONE', *, *, #33, .T. ) ;
#269 = PRODUCT_DEFINITION ( 'NEZNÁMÝ', '', #207, #74 ) ;
#270 = CIRCLE ( 'NONE', #242, 0.1999999999999996503 ) ;
#271 = ORIENTED_EDGE ( 'NONE', *, *, #160, .F. ) ;
#272 = ORIENTED_EDGE ( 'NONE', *, *, #128, .F. ) ;
#273 = ORIENTED_EDGE ( 'NONE', *, *, #55, .F. ) ;
#274 = ORIENTED_EDGE ( 'NONE', *, *, #147, .T. ) ;
#275 = CC_DESIGN_PERSON_AND_ORGANIZATION_ASSIGNMENT ( #64, #291, ( #207 ) ) ;
#276 = APPROVAL_ROLE ( '' ) ;
#277 = VERTEX_POINT ( 'NONE', #279 ) ;
#278 = CALENDAR_DATE ( 2022, 7, 7 ) ;
#279 = CARTESIAN_POINT ( 'NONE',  ( 6.000000000000000888, 7.347880794884120722E-16, 0.000000000000000000 ) ) ;
#280 = EDGE_CURVE ( 'NONE', #48, #67, #98, .T. ) ;
#281 = APPROVAL_PERSON_ORGANIZATION ( #82, #175, #276 ) ;
#282 = DIRECTION ( 'NONE',  ( -0.000000000000000000, -0.000000000000000000, -1.000000000000000000 ) ) ;
#283 = PRODUCT_RELATED_PRODUCT_CATEGORY ( 'detail', '', ( #88 ) ) ;
#284 = DIRECTION ( 'NONE',  ( 1.000000000000000000, 0.000000000000000000, -0.000000000000000000 ) ) ;
#285 = EDGE_CURVE ( 'NONE', #67, #48, #114, .T. ) ;
#286 = CARTESIAN_POINT ( 'NONE',  ( 0.000000000000000000, 0.000000000000000000, 5.199999999999996625 ) ) ;
#287 = LOCAL_TIME ( 14, 36, 28.00000000000000000, #109 ) ;
#288 = PLANE ( 'NONE',  #5 ) ;
#289 = CALENDAR_DATE ( 2022, 7, 7 ) ;
#290 = AXIS2_PLACEMENT_3D ( 'NONE', #177, #151, #36 ) ;
#291 = PERSON_AND_ORGANIZATION_ROLE ( 'design_supplier' ) ;
#292 = ADVANCED_FACE ( 'NONE', ( #263 ), #153, .F. ) ;
#293 = VERTEX_POINT ( 'NONE', #239 ) ;
#294 = APPROVAL_PERSON_ORGANIZATION ( #231, #26, #196 ) ;
#295 = DIRECTION ( 'NONE',  ( 0.000000000000000000, 0.000000000000000000, 1.000000000000000000 ) ) ;
#296 = CARTESIAN_POINT ( 'NONE',  ( 3.750000000000000000, 4.592425496802573972E-16, 105.0000000000000142 ) ) ;
#297 = CLOSED_SHELL ( 'NONE', ( #292, #189, #262, #157, #227, #222, #125, #240, #79 ) ) ;
#298 = DIRECTION ( 'NONE',  ( -0.000000000000000000, -0.000000000000000000, -1.000000000000000000 ) ) ;
#299 = VERTEX_POINT ( 'NONE', #119 ) ;
#300 = DATE_TIME_ROLE ( 'creation_date' ) ;
#301 = EDGE_LOOP ( 'NONE', ( #49, #173, #37, #272 ) ) ;
#302 = PERSON_AND_ORGANIZATION_ROLE ( 'design_owner' ) ;
#303 = CARTESIAN_POINT ( 'NONE',  ( 0.000000000000000000, 0.000000000000000000, 5.000000000000000000 ) ) ;
#304 = CARTESIAN_POINT ( 'NONE',  ( 0.000000000000000000, 0.000000000000000000, 105.0000000000000142 ) ) ;
#305 = CIRCLE ( 'NONE', #106, 6.000000000000000888 ) ;
#306 = DIRECTION ( 'NONE',  ( 0.000000000000000000, 0.000000000000000000, 1.000000000000000000 ) ) ;
#307 = TOROIDAL_SURFACE ( 'NONE', #248, 3.949999999999999734, 0.2000000000000000111 ) ;
ENDSEC;
END-ISO-10303-21;
