ISO-10303-21;
HEADER;
FILE_DESCRIPTION (( 'STEP AP203' ),
    '1' );
FILE_NAME ('5600.STEP',
    '2022-07-07T09:41:34',
    ( '' ),
    ( '' ),
    'SwSTEP 2.0',
    'SolidWorks 2019',
    '' );
FILE_SCHEMA (( 'CONFIG_CONTROL_DESIGN' ));
ENDSEC;

DATA;
#1 = APPROVAL_ROLE ( '' ) ;
#2 = ORIENTED_EDGE ( 'NONE', *, *, #134, .T. ) ;
#3 = PERSON_AND_ORGANIZATION ( #222, #19 ) ;
#4 = VECTOR ( 'NONE', #74, 1000.000000000000000 ) ;
#5 = CARTESIAN_POINT ( 'NONE',  ( 0.000000000000000000, 0.000000000000000000, 7.000000000000000000 ) ) ;
#6 = DIRECTION ( 'NONE',  ( 1.000000000000000000, 0.000000000000000000, 0.000000000000000000 ) ) ;
#7 = SHAPE_DEFINITION_REPRESENTATION ( #273, #39 ) ;
#8 = LINE ( 'NONE', #51, #54 ) ;
#9 = CARTESIAN_POINT ( 'NONE',  ( 0.000000000000000000, 0.000000000000000000, 7.000000000000000000 ) ) ;
#10 = CC_DESIGN_PERSON_AND_ORGANIZATION_ASSIGNMENT ( #42, #213, ( #14 ) ) ;
#11 = CARTESIAN_POINT ( 'NONE',  ( 11.00000000000000000, 1.347111479062088405E-15, 7.000000000000000000 ) ) ;
#12 = DIRECTION ( 'NONE',  ( -1.000000000000000000, 0.000000000000000000, 0.000000000000000000 ) ) ;
#13 = DIRECTION ( 'NONE',  ( 1.224646799147353207E-16, 1.000000000000000000, -0.000000000000000000 ) ) ;
#14 = PRODUCT ( '5600', '5600', '', ( #43 ) ) ;
#15 = FACE_OUTER_BOUND ( 'NONE', #286, .T. ) ;
#16 = FACE_OUTER_BOUND ( 'NONE', #269, .T. ) ;
#17 = ORIENTED_EDGE ( 'NONE', *, *, #237, .T. ) ;
#18 = CARTESIAN_POINT ( 'NONE',  ( 0.000000000000000000, 0.000000000000000000, 0.000000000000000000 ) ) ;
#19 = ORGANIZATION ( 'NEURÈENÝ', 'NEURÈENÝ', '' ) ;
#20 = APPROVAL_STATUS ( 'not_yet_approved' ) ;
#21 = AXIS2_PLACEMENT_3D ( 'NONE', #18, #274, #209 ) ;
#22 = APPROVAL_DATE_TIME ( #188, #215 ) ;
#23 = CC_DESIGN_PERSON_AND_ORGANIZATION_ASSIGNMENT ( #94, #283, ( #46 ) ) ;
#24 =( NAMED_UNIT ( * ) SI_UNIT ( $, .STERADIAN. ) SOLID_ANGLE_UNIT ( ) );
#25 = EDGE_CURVE ( 'NONE', #67, #140, #191, .T. ) ;
#26 = ORIENTED_EDGE ( 'NONE', *, *, #119, .T. ) ;
#27 = CIRCLE ( 'NONE', #63, 0.1999999999999996503 ) ;
#28 = ORIENTED_EDGE ( 'NONE', *, *, #136, .T. ) ;
#29 = EDGE_LOOP ( 'NONE', ( #17, #130 ) ) ;
#30 = EDGE_LOOP ( 'NONE', ( #115, #166, #183, #129 ) ) ;
#31 = LOCAL_TIME ( 11, 41, 34.00000000000000000, #47 ) ;
#32 = ORIENTED_EDGE ( 'NONE', *, *, #91, .F. ) ;
#33 = DIRECTION ( 'NONE',  ( 0.000000000000000000, 0.000000000000000000, 1.000000000000000000 ) ) ;
#34 = DIRECTION ( 'NONE',  ( 1.000000000000000000, 0.000000000000000000, 0.000000000000000000 ) ) ;
#35 = CC_DESIGN_APPROVAL ( #215, ( #291 ) ) ;
#36 = FACE_OUTER_BOUND ( 'NONE', #252, .T. ) ;
#37 = VERTEX_POINT ( 'NONE', #171 ) ;
#38 = CARTESIAN_POINT ( 'NONE',  ( 0.000000000000000000, 0.000000000000000000, 7.000000000000000000 ) ) ;
#39 = ADVANCED_BREP_SHAPE_REPRESENTATION ( '5600', ( #139, #226 ), #292 ) ;
#40 = CARTESIAN_POINT ( 'NONE',  ( 0.000000000000000000, 0.000000000000000000, 7.199999999999998401 ) ) ;
#41 = AXIS2_PLACEMENT_3D ( 'NONE', #9, #198, #293 ) ;
#42 = PERSON_AND_ORGANIZATION ( #222, #19 ) ;
#43 = MECHANICAL_CONTEXT ( 'NONE', #112, 'mechanical' ) ;
#44 = DATE_AND_TIME ( #96, #103 ) ;
#45 = DATE_TIME_ROLE ( 'classification_date' ) ;
#46 = SECURITY_CLASSIFICATION ( '', '', #235 ) ;
#47 = COORDINATED_UNIVERSAL_TIME_OFFSET ( 1, 0, .AHEAD. ) ;
#48 = ORIENTED_EDGE ( 'NONE', *, *, #265, .T. ) ;
#49 = DIRECTION ( 'NONE',  ( 1.000000000000000000, 0.000000000000000000, 0.000000000000000000 ) ) ;
#50 = CARTESIAN_POINT ( 'NONE',  ( 0.000000000000000000, 0.000000000000000000, 0.000000000000000000 ) ) ;
#51 = CARTESIAN_POINT ( 'NONE',  ( 11.00000000000000000, 1.347111479062088405E-15, 7.000000000000000000 ) ) ;
#52 = DIRECTION ( 'NONE',  ( 0.000000000000000000, 0.000000000000000000, 1.000000000000000000 ) ) ;
#53 = CARTESIAN_POINT ( 'NONE',  ( -7.000000000000000888, 0.000000000000000000, 7.199999999999998401 ) ) ;
#54 = VECTOR ( 'NONE', #193, 1000.000000000000000 ) ;
#55 = CYLINDRICAL_SURFACE ( 'NONE', #304, 11.00000000000000000 ) ;
#56 = ADVANCED_FACE ( 'NONE', ( #294 ), #153, .T. ) ;
#57 = DIRECTION ( 'NONE',  ( 0.000000000000000000, 0.000000000000000000, 1.000000000000000000 ) ) ;
#58 = FACE_OUTER_BOUND ( 'NONE', #261, .T. ) ;
#59 = APPROVAL_PERSON_ORGANIZATION ( #211, #302, #1 ) ;
#60 = DIRECTION ( 'NONE',  ( 0.000000000000000000, 0.000000000000000000, 1.000000000000000000 ) ) ;
#61 = DIRECTION ( 'NONE',  ( 0.000000000000000000, 0.000000000000000000, 1.000000000000000000 ) ) ;
#62 = ORIENTED_EDGE ( 'NONE', *, *, #300, .T. ) ;
#63 = AXIS2_PLACEMENT_3D ( 'NONE', #114, #178, #206 ) ;
#64 = PERSON_AND_ORGANIZATION ( #222, #19 ) ;
#65 = CC_DESIGN_DATE_AND_TIME_ASSIGNMENT ( #143, #234, ( #291 ) ) ;
#66 = PERSON_AND_ORGANIZATION ( #222, #19 ) ;
#67 = VERTEX_POINT ( 'NONE', #176 ) ;
#68 = CALENDAR_DATE ( 2022, 7, 7 ) ;
#69 = VERTEX_POINT ( 'NONE', #53 ) ;
#70 = CIRCLE ( 'NONE', #141, 11.00000000000000000 ) ;
#71 = EDGE_CURVE ( 'NONE', #219, #169, #92, .T. ) ;
#72 = DESIGN_CONTEXT ( 'detailed design', #104, 'design' ) ;
#73 = DIRECTION ( 'NONE',  ( 1.000000000000000000, 0.000000000000000000, 0.000000000000000000 ) ) ;
#74 = DIRECTION ( 'NONE',  ( -0.000000000000000000, -0.000000000000000000, -1.000000000000000000 ) ) ;
#75 = PRODUCT_DEFINITION_FORMATION_WITH_SPECIFIED_SOURCE ( 'LIBOVOLNÝ', '', #14, .NOT_KNOWN. ) ;
#76 = EDGE_CURVE ( 'NONE', #131, #69, #151, .T. ) ;
#77 = ORIENTED_EDGE ( 'NONE', *, *, #296, .T. ) ;
#78 = APPROVAL ( #146, 'NEURÈENÝ' ) ;
#79 = DIRECTION ( 'NONE',  ( -0.000000000000000000, -0.000000000000000000, -1.000000000000000000 ) ) ;
#80 = CARTESIAN_POINT ( 'NONE',  ( 11.00000000000000000, 1.347111479062088405E-15, 0.000000000000000000 ) ) ;
#81 = VECTOR ( 'NONE', #247, 1000.000000000000000 ) ;
#82 = CARTESIAN_POINT ( 'NONE',  ( 0.000000000000000000, 0.000000000000000000, 132.0000000000000000 ) ) ;
#83 = EDGE_CURVE ( 'NONE', #37, #137, #126, .T. ) ;
#84 = DIRECTION ( 'NONE',  ( 1.000000000000000000, 0.000000000000000000, 0.000000000000000000 ) ) ;
#85 = PLANE ( 'NONE',  #21 ) ;
#86 = CIRCLE ( 'NONE', #177, 11.00000000000000000 ) ;
#87 = DIRECTION ( 'NONE',  ( 1.000000000000000000, 0.000000000000000000, -0.000000000000000000 ) ) ;
#88 = EDGE_LOOP ( 'NONE', ( #208, #77, #161, #107 ) ) ;
#89 = CALENDAR_DATE ( 2022, 7, 7 ) ;
#90 = APPLICATION_PROTOCOL_DEFINITION ( 'international standard', 'config_control_design', 1994, #112 ) ;
#91 = EDGE_CURVE ( 'NONE', #173, #97, #70, .T. ) ;
#92 = CIRCLE ( 'NONE', #164, 11.00000000000000000 ) ;
#93 = PERSON_AND_ORGANIZATION_ROLE ( 'creator' ) ;
#94 = PERSON_AND_ORGANIZATION ( #222, #19 ) ;
#95 = ORIENTED_EDGE ( 'NONE', *, *, #99, .T. ) ;
#96 = CALENDAR_DATE ( 2022, 7, 7 ) ;
#97 = VERTEX_POINT ( 'NONE', #11 ) ;
#98 = CIRCLE ( 'NONE', #149, 7.000000000000000888 ) ;
#99 = EDGE_CURVE ( 'NONE', #97, #173, #86, .T. ) ;
#100 = DIRECTION ( 'NONE',  ( 0.000000000000000000, 0.000000000000000000, 1.000000000000000000 ) ) ;
#101 = LINE ( 'NONE', #268, #216 ) ;
#102 = CARTESIAN_POINT ( 'NONE',  ( 0.000000000000000000, 0.000000000000000000, 7.199999999999998401 ) ) ;
#103 = LOCAL_TIME ( 11, 41, 34.00000000000000000, #240 ) ;
#104 = APPLICATION_CONTEXT ( 'configuration controlled 3d designs of mechanical parts and assemblies' ) ;
#105 = CC_DESIGN_PERSON_AND_ORGANIZATION_ASSIGNMENT ( #210, #144, ( #75 ) ) ;
#106 = CC_DESIGN_APPROVAL ( #78, ( #46 ) ) ;
#107 = ORIENTED_EDGE ( 'NONE', *, *, #278, .F. ) ;
#108 = DIRECTION ( 'NONE',  ( 0.000000000000000000, 0.000000000000000000, 1.000000000000000000 ) ) ;
#109 = CARTESIAN_POINT ( 'NONE',  ( 0.000000000000000000, 0.000000000000000000, 132.0000000000000000 ) ) ;
#110 = AXIS2_PLACEMENT_3D ( 'NONE', #38, #133, #87 ) ;
#111 = DIRECTION ( 'NONE',  ( -1.000000000000000000, 1.224646799147358384E-16, 0.000000000000000000 ) ) ;
#112 = APPLICATION_CONTEXT ( 'configuration controlled 3d designs of mechanical parts and assemblies' ) ;
#113 = DIRECTION ( 'NONE',  ( -0.000000000000000000, -0.000000000000000000, -1.000000000000000000 ) ) ;
#114 = CARTESIAN_POINT ( 'NONE',  ( 7.200000000000001066, 0.000000000000000000, 7.199999999999998401 ) ) ;
#115 = ORIENTED_EDGE ( 'NONE', *, *, #296, .F. ) ;
#116 = CIRCLE ( 'NONE', #145, 7.200000000000001066 ) ;
#117 = DIRECTION ( 'NONE',  ( 1.000000000000000000, 0.000000000000000000, -0.000000000000000000 ) ) ;
#118 = COORDINATED_UNIVERSAL_TIME_OFFSET ( 1, 0, .AHEAD. ) ;
#119 = EDGE_CURVE ( 'NONE', #97, #219, #8, .T. ) ;
#120 = CALENDAR_DATE ( 2022, 7, 7 ) ;
#121 = AXIS2_PLACEMENT_3D ( 'NONE', #179, #60, #162 ) ;
#122 = APPROVAL_ROLE ( '' ) ;
#123 = PERSON_AND_ORGANIZATION ( #222, #19 ) ;
#124 = ORIENTED_EDGE ( 'NONE', *, *, #258, .T. ) ;
#125 = CIRCLE ( 'NONE', #121, 7.000000000000000888 ) ;
#126 = LINE ( 'NONE', #217, #4 ) ;
#127 = ADVANCED_FACE ( 'NONE', ( #152 ), #242, .F. ) ;
#128 = DIRECTION ( 'NONE',  ( 1.000000000000000000, 0.000000000000000000, 0.000000000000000000 ) ) ;
#129 = ORIENTED_EDGE ( 'NONE', *, *, #25, .F. ) ;
#130 = ORIENTED_EDGE ( 'NONE', *, *, #25, .T. ) ;
#131 = VERTEX_POINT ( 'NONE', #197 ) ;
#132 = CARTESIAN_POINT ( 'NONE',  ( 0.000000000000000000, 0.000000000000000000, 7.000000000000000000 ) ) ;
#133 = DIRECTION ( 'NONE',  ( 0.000000000000000000, 0.000000000000000000, 1.000000000000000000 ) ) ;
#134 = EDGE_CURVE ( 'NONE', #169, #219, #297, .T. ) ;
#135 = FACE_OUTER_BOUND ( 'NONE', #223, .T. ) ;
#136 = EDGE_CURVE ( 'NONE', #173, #169, #101, .T. ) ;
#137 = VERTEX_POINT ( 'NONE', #138 ) ;
#138 = CARTESIAN_POINT ( 'NONE',  ( 7.000000000000000888, 8.572527594031474176E-16, 7.199999999999998401 ) ) ;
#139 = MANIFOLD_SOLID_BREP ( 'Zaoblit1', #307 ) ;
#140 = VERTEX_POINT ( 'NONE', #301 ) ;
#141 = AXIS2_PLACEMENT_3D ( 'NONE', #5, #100, #128 ) ;
#142 = APPROVAL_STATUS ( 'not_yet_approved' ) ;
#143 = DATE_AND_TIME ( #68, #181 ) ;
#144 = PERSON_AND_ORGANIZATION_ROLE ( 'design_supplier' ) ;
#145 = AXIS2_PLACEMENT_3D ( 'NONE', #200, #230, #180 ) ;
#146 = APPROVAL_STATUS ( 'not_yet_approved' ) ;
#147 = PERSON_AND_ORGANIZATION_ROLE ( 'creator' ) ;
#148 = CARTESIAN_POINT ( 'NONE',  ( 0.000000000000000000, 0.000000000000000000, 0.000000000000000000 ) ) ;
#149 = AXIS2_PLACEMENT_3D ( 'NONE', #82, #254, #34 ) ;
#150 = DIRECTION ( 'NONE',  ( -1.000000000000000000, 0.000000000000000000, 0.000000000000000000 ) ) ;
#151 = LINE ( 'NONE', #295, #81 ) ;
#152 = FACE_OUTER_BOUND ( 'NONE', #88, .T. ) ;
#153 = CYLINDRICAL_SURFACE ( 'NONE', #220, 11.00000000000000000 ) ;
#154 = AXIS2_PLACEMENT_3D ( 'NONE', #203, #227, #277 ) ;
#155 = ADVANCED_FACE ( 'NONE', ( #58 ), #156, .T. ) ;
#156 = CYLINDRICAL_SURFACE ( 'NONE', #201, 7.000000000000000888 ) ;
#157 = FACE_BOUND ( 'NONE', #29, .T. ) ;
#158 = DIRECTION ( 'NONE',  ( -1.000000000000000000, 0.000000000000000000, 0.000000000000000000 ) ) ;
#159 = AXIS2_PLACEMENT_3D ( 'NONE', #102, #52, #49 ) ;
#160 = CARTESIAN_POINT ( 'NONE',  ( -11.00000000000000000, 0.000000000000000000, 7.000000000000000000 ) ) ;
#161 = ORIENTED_EDGE ( 'NONE', *, *, #237, .F. ) ;
#162 = DIRECTION ( 'NONE',  ( 1.000000000000000000, 0.000000000000000000, 0.000000000000000000 ) ) ;
#163 = ORIENTED_EDGE ( 'NONE', *, *, #119, .F. ) ;
#164 = AXIS2_PLACEMENT_3D ( 'NONE', #50, #263, #245 ) ;
#165 = COORDINATED_UNIVERSAL_TIME_OFFSET ( 1, 0, .AHEAD. ) ;
#166 = ORIENTED_EDGE ( 'NONE', *, *, #202, .F. ) ;
#167 = DIRECTION ( 'NONE',  ( 1.000000000000000000, 0.000000000000000000, 0.000000000000000000 ) ) ;
#168 = LOCAL_TIME ( 11, 41, 34.00000000000000000, #305 ) ;
#169 = VERTEX_POINT ( 'NONE', #303 ) ;
#170 = ORIENTED_EDGE ( 'NONE', *, *, #76, .F. ) ;
#171 = CARTESIAN_POINT ( 'NONE',  ( 7.000000000000000888, 8.572527594031474176E-16, 132.0000000000000000 ) ) ;
#172 = APPROVAL_PERSON_ORGANIZATION ( #3, #215, #239 ) ;
#173 = VERTEX_POINT ( 'NONE', #160 ) ;
#174 = APPROVAL_DATE_TIME ( #184, #78 ) ;
#175 = ORIENTED_EDGE ( 'NONE', *, *, #265, .F. ) ;
#176 = CARTESIAN_POINT ( 'NONE',  ( -7.200000000000001066, 8.817456953860944275E-16, 6.999999999999999112 ) ) ;
#177 = AXIS2_PLACEMENT_3D ( 'NONE', #218, #108, #6 ) ;
#178 = DIRECTION ( 'NONE',  ( 0.000000000000000000, -1.000000000000000000, 0.000000000000000000 ) ) ;
#179 = CARTESIAN_POINT ( 'NONE',  ( 0.000000000000000000, 0.000000000000000000, 7.199999999999998401 ) ) ;
#180 = DIRECTION ( 'NONE',  ( 1.000000000000000000, 0.000000000000000000, 0.000000000000000000 ) ) ;
#181 = LOCAL_TIME ( 11, 41, 34.00000000000000000, #118 ) ;
#182 = DIRECTION ( 'NONE',  ( -0.000000000000000000, -0.000000000000000000, -1.000000000000000000 ) ) ;
#183 = ORIENTED_EDGE ( 'NONE', *, *, #278, .T. ) ;
#184 = DATE_AND_TIME ( #89, #168 ) ;
#185 = ADVANCED_FACE ( 'NONE', ( #298 ), #55, .T. ) ;
#186 =( LENGTH_UNIT ( ) NAMED_UNIT ( * ) SI_UNIT ( .MILLI., .METRE. ) );
#187 = ADVANCED_FACE ( 'NONE', ( #15 ), #85, .F. ) ;
#188 = DATE_AND_TIME ( #120, #31 ) ;
#189 = ORIENTED_EDGE ( 'NONE', *, *, #76, .T. ) ;
#190 = UNCERTAINTY_MEASURE_WITH_UNIT (LENGTH_MEASURE( 1.000000000000000082E-05 ), #186, 'distance_accuracy_value', 'NONE');
#191 = CIRCLE ( 'NONE', #41, 7.200000000000001066 ) ;
#192 = ORIENTED_EDGE ( 'NONE', *, *, #300, .F. ) ;
#193 = DIRECTION ( 'NONE',  ( -0.000000000000000000, -0.000000000000000000, -1.000000000000000000 ) ) ;
#194 = CC_DESIGN_PERSON_AND_ORGANIZATION_ASSIGNMENT ( #66, #93, ( #75 ) ) ;
#195 = ORIENTED_EDGE ( 'NONE', *, *, #99, .F. ) ;
#196 = TOROIDAL_SURFACE ( 'NONE', #212, 7.200000000000001066, 0.2000000000000000111 ) ;
#197 = CARTESIAN_POINT ( 'NONE',  ( -7.000000000000000888, 0.000000000000000000, 132.0000000000000000 ) ) ;
#198 = DIRECTION ( 'NONE',  ( -0.000000000000000000, -0.000000000000000000, -1.000000000000000000 ) ) ;
#199 = ORIENTED_EDGE ( 'NONE', *, *, #83, .F. ) ;
#200 = CARTESIAN_POINT ( 'NONE',  ( 0.000000000000000000, 0.000000000000000000, 7.000000000000000000 ) ) ;
#201 = AXIS2_PLACEMENT_3D ( 'NONE', #255, #228, #299 ) ;
#202 = EDGE_CURVE ( 'NONE', #137, #69, #231, .T. ) ;
#203 = CARTESIAN_POINT ( 'NONE',  ( 0.000000000000000000, 0.000000000000000000, 132.0000000000000000 ) ) ;
#204 = CC_DESIGN_DATE_AND_TIME_ASSIGNMENT ( #281, #45, ( #46 ) ) ;
#205 = DIRECTION ( 'NONE',  ( -0.000000000000000000, -0.000000000000000000, -1.000000000000000000 ) ) ;
#206 = DIRECTION ( 'NONE',  ( 0.000000000000000000, 0.000000000000000000, -1.000000000000000000 ) ) ;
#207 = APPROVAL_PERSON_ORGANIZATION ( #123, #78, #122 ) ;
#208 = ORIENTED_EDGE ( 'NONE', *, *, #258, .F. ) ;
#209 = DIRECTION ( 'NONE',  ( 1.000000000000000000, 0.000000000000000000, -0.000000000000000000 ) ) ;
#210 = PERSON_AND_ORGANIZATION ( #222, #19 ) ;
#211 = PERSON_AND_ORGANIZATION ( #222, #19 ) ;
#212 = AXIS2_PLACEMENT_3D ( 'NONE', #250, #33, #271 ) ;
#213 = PERSON_AND_ORGANIZATION_ROLE ( 'design_owner' ) ;
#214 = ORIENTED_EDGE ( 'NONE', *, *, #202, .T. ) ;
#215 = APPROVAL ( #20, 'NEURÈENÝ' ) ;
#216 = VECTOR ( 'NONE', #205, 1000.000000000000000 ) ;
#217 = CARTESIAN_POINT ( 'NONE',  ( 7.000000000000000888, 8.572527594031474176E-16, 132.0000000000000000 ) ) ;
#218 = CARTESIAN_POINT ( 'NONE',  ( 0.000000000000000000, 0.000000000000000000, 7.000000000000000000 ) ) ;
#219 = VERTEX_POINT ( 'NONE', #80 ) ;
#220 = AXIS2_PLACEMENT_3D ( 'NONE', #267, #79, #150 ) ;
#221 = EDGE_LOOP ( 'NONE', ( #195, #26, #241, #264 ) ) ;
#222 = PERSON ( 'NEURÈENÝ', 'NEURÈENÝ', 'NEURÈENÝ', ('NEURÈENÝ'), ('NEURÈENÝ'), ('NEURÈENÝ') ) ;
#223 = EDGE_LOOP ( 'NONE', ( #243, #95 ) ) ;
#224 = CARTESIAN_POINT ( 'NONE',  ( 0.000000000000000000, 0.000000000000000000, 132.0000000000000000 ) ) ;
#225 = CARTESIAN_POINT ( 'NONE',  ( -7.200000000000001066, 8.817456953860944275E-16, 7.199999999999998401 ) ) ;
#226 = AXIS2_PLACEMENT_3D ( 'NONE', #285, #256, #167 ) ;
#227 = DIRECTION ( 'NONE',  ( 0.000000000000000000, 0.000000000000000000, 1.000000000000000000 ) ) ;
#228 = DIRECTION ( 'NONE',  ( -0.000000000000000000, -0.000000000000000000, -1.000000000000000000 ) ) ;
#229 = ORIENTED_EDGE ( 'NONE', *, *, #71, .F. ) ;
#230 = DIRECTION ( 'NONE',  ( -0.000000000000000000, -0.000000000000000000, -1.000000000000000000 ) ) ;
#231 = CIRCLE ( 'NONE', #266, 7.000000000000000888 ) ;
#232 = CC_DESIGN_SECURITY_CLASSIFICATION ( #46, ( #75 ) ) ;
#233 =( NAMED_UNIT ( * ) PLANE_ANGLE_UNIT ( ) SI_UNIT ( $, .RADIAN. ) );
#234 = DATE_TIME_ROLE ( 'creation_date' ) ;
#235 = SECURITY_CLASSIFICATION_LEVEL ( 'unclassified' ) ;
#236 = PRODUCT_RELATED_PRODUCT_CATEGORY ( 'detail', '', ( #14 ) ) ;
#237 = EDGE_CURVE ( 'NONE', #140, #67, #116, .T. ) ;
#238 = LOCAL_TIME ( 11, 41, 34.00000000000000000, #165 ) ;
#239 = APPROVAL_ROLE ( '' ) ;
#240 = COORDINATED_UNIVERSAL_TIME_OFFSET ( 1, 0, .AHEAD. ) ;
#241 = ORIENTED_EDGE ( 'NONE', *, *, #71, .T. ) ;
#242 = TOROIDAL_SURFACE ( 'NONE', #159, 7.200000000000001066, 0.2000000000000000111 ) ;
#243 = ORIENTED_EDGE ( 'NONE', *, *, #91, .T. ) ;
#244 = ADVANCED_FACE ( 'NONE', ( #248 ), #196, .F. ) ;
#245 = DIRECTION ( 'NONE',  ( 1.000000000000000000, 0.000000000000000000, 0.000000000000000000 ) ) ;
#246 = CIRCLE ( 'NONE', #251, 0.1999999999999996503 ) ;
#247 = DIRECTION ( 'NONE',  ( -0.000000000000000000, -0.000000000000000000, -1.000000000000000000 ) ) ;
#248 = FACE_OUTER_BOUND ( 'NONE', #30, .T. ) ;
#249 = PLANE ( 'NONE',  #110 ) ;
#250 = CARTESIAN_POINT ( 'NONE',  ( 0.000000000000000000, 0.000000000000000000, 7.199999999999998401 ) ) ;
#251 = AXIS2_PLACEMENT_3D ( 'NONE', #225, #13, #111 ) ;
#252 = EDGE_LOOP ( 'NONE', ( #62, #48 ) ) ;
#253 = ADVANCED_FACE ( 'NONE', ( #16 ), #275, .T. ) ;
#254 = DIRECTION ( 'NONE',  ( 0.000000000000000000, 0.000000000000000000, 1.000000000000000000 ) ) ;
#255 = CARTESIAN_POINT ( 'NONE',  ( 0.000000000000000000, 0.000000000000000000, 132.0000000000000000 ) ) ;
#256 = DIRECTION ( 'NONE',  ( 0.000000000000000000, 0.000000000000000000, 1.000000000000000000 ) ) ;
#257 = AXIS2_PLACEMENT_3D ( 'NONE', #224, #113, #12 ) ;
#258 = EDGE_CURVE ( 'NONE', #69, #137, #125, .T. ) ;
#259 = CALENDAR_DATE ( 2022, 7, 7 ) ;
#260 = APPLICATION_PROTOCOL_DEFINITION ( 'international standard', 'config_control_design', 1994, #104 ) ;
#261 = EDGE_LOOP ( 'NONE', ( #175, #290, #214, #170 ) ) ;
#262 = ADVANCED_FACE ( 'NONE', ( #36 ), #272, .T. ) ;
#263 = DIRECTION ( 'NONE',  ( 0.000000000000000000, 0.000000000000000000, 1.000000000000000000 ) ) ;
#264 = ORIENTED_EDGE ( 'NONE', *, *, #136, .F. ) ;
#265 = EDGE_CURVE ( 'NONE', #37, #131, #98, .T. ) ;
#266 = AXIS2_PLACEMENT_3D ( 'NONE', #40, #61, #84 ) ;
#267 = CARTESIAN_POINT ( 'NONE',  ( 0.000000000000000000, 0.000000000000000000, 7.000000000000000000 ) ) ;
#268 = CARTESIAN_POINT ( 'NONE',  ( -11.00000000000000000, 0.000000000000000000, 7.000000000000000000 ) ) ;
#269 = EDGE_LOOP ( 'NONE', ( #199, #192, #189, #124 ) ) ;
#270 = CC_DESIGN_APPROVAL ( #302, ( #75 ) ) ;
#271 = DIRECTION ( 'NONE',  ( 1.000000000000000000, 0.000000000000000000, 0.000000000000000000 ) ) ;
#272 = PLANE ( 'NONE',  #287 ) ;
#273 = PRODUCT_DEFINITION_SHAPE ( 'NONE', 'NONE',  #291 ) ;
#274 = DIRECTION ( 'NONE',  ( 0.000000000000000000, 0.000000000000000000, 1.000000000000000000 ) ) ;
#275 = CYLINDRICAL_SURFACE ( 'NONE', #257, 7.000000000000000888 ) ;
#276 = AXIS2_PLACEMENT_3D ( 'NONE', #148, #289, #73 ) ;
#277 = DIRECTION ( 'NONE',  ( 1.000000000000000000, 0.000000000000000000, 0.000000000000000000 ) ) ;
#278 = EDGE_CURVE ( 'NONE', #137, #140, #27, .T. ) ;
#279 = EDGE_LOOP ( 'NONE', ( #163, #32, #28, #2 ) ) ;
#280 = ADVANCED_FACE ( 'NONE', ( #157, #135 ), #249, .T. ) ;
#281 = DATE_AND_TIME ( #259, #238 ) ;
#282 = CIRCLE ( 'NONE', #154, 7.000000000000000888 ) ;
#283 = PERSON_AND_ORGANIZATION_ROLE ( 'classification_officer' ) ;
#284 = ORIENTED_EDGE ( 'NONE', *, *, #134, .F. ) ;
#285 = CARTESIAN_POINT ( 'NONE',  ( 0.000000000000000000, 0.000000000000000000, 0.000000000000000000 ) ) ;
#286 = EDGE_LOOP ( 'NONE', ( #284, #229 ) ) ;
#287 = AXIS2_PLACEMENT_3D ( 'NONE', #109, #57, #117 ) ;
#288 = CC_DESIGN_PERSON_AND_ORGANIZATION_ASSIGNMENT ( #64, #147, ( #291 ) ) ;
#289 = DIRECTION ( 'NONE',  ( 0.000000000000000000, 0.000000000000000000, 1.000000000000000000 ) ) ;
#290 = ORIENTED_EDGE ( 'NONE', *, *, #83, .T. ) ;
#291 = PRODUCT_DEFINITION ( 'NEZNÁMÝ', '', #75, #72 ) ;
#292 =( GEOMETRIC_REPRESENTATION_CONTEXT ( 3 ) GLOBAL_UNCERTAINTY_ASSIGNED_CONTEXT ( ( #190 ) ) GLOBAL_UNIT_ASSIGNED_CONTEXT ( ( #186, #233, #24 ) ) REPRESENTATION_CONTEXT ( 'NONE', 'WORKASPACE' ) );
#293 = DIRECTION ( 'NONE',  ( 1.000000000000000000, 0.000000000000000000, 0.000000000000000000 ) ) ;
#294 = FACE_OUTER_BOUND ( 'NONE', #279, .T. ) ;
#295 = CARTESIAN_POINT ( 'NONE',  ( -7.000000000000000888, 0.000000000000000000, 132.0000000000000000 ) ) ;
#296 = EDGE_CURVE ( 'NONE', #69, #67, #246, .T. ) ;
#297 = CIRCLE ( 'NONE', #276, 11.00000000000000000 ) ;
#298 = FACE_OUTER_BOUND ( 'NONE', #221, .T. ) ;
#299 = DIRECTION ( 'NONE',  ( -1.000000000000000000, 0.000000000000000000, 0.000000000000000000 ) ) ;
#300 = EDGE_CURVE ( 'NONE', #131, #37, #282, .T. ) ;
#301 = CARTESIAN_POINT ( 'NONE',  ( 7.200000000000001066, 0.000000000000000000, 6.999999999999999112 ) ) ;
#302 = APPROVAL ( #142, 'NEURÈENÝ' ) ;
#303 = CARTESIAN_POINT ( 'NONE',  ( -11.00000000000000000, 0.000000000000000000, 0.000000000000000000 ) ) ;
#304 = AXIS2_PLACEMENT_3D ( 'NONE', #132, #182, #158 ) ;
#305 = COORDINATED_UNIVERSAL_TIME_OFFSET ( 1, 0, .AHEAD. ) ;
#306 = APPROVAL_DATE_TIME ( #44, #302 ) ;
#307 = CLOSED_SHELL ( 'NONE', ( #127, #155, #185, #56, #280, #187, #253, #262, #244 ) ) ;
ENDSEC;
END-ISO-10303-21;
