ISO-10303-21;
HEADER;
FILE_DESCRIPTION (( 'STEP AP203' ),
    '1' );
FILE_NAME ('7fee.STEP',
    '2022-07-07T10:14:01',
    ( '' ),
    ( '' ),
    'SwSTEP 2.0',
    'SolidWorks 2019',
    '' );
FILE_SCHEMA (( 'CONFIG_CONTROL_DESIGN' ));
ENDSEC;

DATA;
#1 = FACE_OUTER_BOUND ( 'NONE', #243, .T. ) ;
#2 = CARTESIAN_POINT ( 'NONE',  ( 0.000000000000000000, 0.000000000000000000, 130.0000000000000000 ) ) ;
#3 = APPLICATION_PROTOCOL_DEFINITION ( 'international standard', 'config_control_design', 1994, #6 ) ;
#4 = EDGE_CURVE ( 'NONE', #62, #80, #107, .T. ) ;
#5 = TOROIDAL_SURFACE ( 'NONE', #306, 3.200000000000000622, 0.2000000000000000111 ) ;
#6 = APPLICATION_CONTEXT ( 'configuration controlled 3d designs of mechanical parts and assemblies' ) ;
#7 = PERSON_AND_ORGANIZATION ( #281, #30 ) ;
#8 = ORIENTED_EDGE ( 'NONE', *, *, #185, .F. ) ;
#9 = ORIENTED_EDGE ( 'NONE', *, *, #45, .T. ) ;
#10 = FACE_OUTER_BOUND ( 'NONE', #203, .T. ) ;
#11 = AXIS2_PLACEMENT_3D ( 'NONE', #89, #158, #221 ) ;
#12 = DIRECTION ( 'NONE',  ( -1.000000000000000000, 0.000000000000000000, 0.000000000000000000 ) ) ;
#13 = DIRECTION ( 'NONE',  ( -0.000000000000000000, -0.000000000000000000, -1.000000000000000000 ) ) ;
#14 = DIRECTION ( 'NONE',  ( 1.000000000000000000, 0.000000000000000000, -0.000000000000000000 ) ) ;
#15 = DATE_TIME_ROLE ( 'creation_date' ) ;
#16 = EDGE_LOOP ( 'NONE', ( #55, #287, #192, #168 ) ) ;
#17 = CALENDAR_DATE ( 2022, 7, 7 ) ;
#18 = DIRECTION ( 'NONE',  ( 0.000000000000000000, 0.000000000000000000, 1.000000000000000000 ) ) ;
#19 = ADVANCED_FACE ( 'NONE', ( #204 ), #138, .F. ) ;
#20 = DIRECTION ( 'NONE',  ( -0.000000000000000000, -0.000000000000000000, -1.000000000000000000 ) ) ;
#21 = DIRECTION ( 'NONE',  ( 0.000000000000000000, 0.000000000000000000, 1.000000000000000000 ) ) ;
#22 = CIRCLE ( 'NONE', #93, 3.000000000000000444 ) ;
#23 = CARTESIAN_POINT ( 'NONE',  ( 0.000000000000000000, 0.000000000000000000, 5.000000000000000000 ) ) ;
#24 = PERSON_AND_ORGANIZATION_ROLE ( 'design_owner' ) ;
#25 = DIRECTION ( 'NONE',  ( 1.000000000000000000, 0.000000000000000000, 0.000000000000000000 ) ) ;
#26 = PERSON_AND_ORGANIZATION_ROLE ( 'classification_officer' ) ;
#27 =( LENGTH_UNIT ( ) NAMED_UNIT ( * ) SI_UNIT ( .MILLI., .METRE. ) );
#28 = CC_DESIGN_PERSON_AND_ORGANIZATION_ASSIGNMENT ( #41, #165, ( #248 ) ) ;
#29 = DATE_TIME_ROLE ( 'classification_date' ) ;
#30 = ORGANIZATION ( 'NEURÈENÝ', 'NEURÈENÝ', '' ) ;
#31 = VECTOR ( 'NONE', #130, 1000.000000000000000 ) ;
#32 = LOCAL_TIME ( 12, 14, 1.000000000000000000, #39 ) ;
#33 = ORIENTED_EDGE ( 'NONE', *, *, #48, .T. ) ;
#34 = CARTESIAN_POINT ( 'NONE',  ( 0.000000000000000000, 0.000000000000000000, 0.000000000000000000 ) ) ;
#35 = DIRECTION ( 'NONE',  ( -0.000000000000000000, -0.000000000000000000, -1.000000000000000000 ) ) ;
#36 = PLANE ( 'NONE',  #193 ) ;
#37 = CALENDAR_DATE ( 2022, 7, 7 ) ;
#38 = ORIENTED_EDGE ( 'NONE', *, *, #151, .T. ) ;
#39 = COORDINATED_UNIVERSAL_TIME_OFFSET ( 1, 0, .AHEAD. ) ;
#40 = CARTESIAN_POINT ( 'NONE',  ( 0.000000000000000000, 0.000000000000000000, 5.199999999999996625 ) ) ;
#41 = PERSON_AND_ORGANIZATION ( #281, #30 ) ;
#42 = FACE_OUTER_BOUND ( 'NONE', #251, .T. ) ;
#43 = DIRECTION ( 'NONE',  ( 0.000000000000000000, 0.000000000000000000, 1.000000000000000000 ) ) ;
#44 = CLOSED_SHELL ( 'NONE', ( #19, #64, #253, #71, #101, #237, #294, #227, #240 ) ) ;
#45 = EDGE_CURVE ( 'NONE', #254, #228, #171, .T. ) ;
#46 = FACE_OUTER_BOUND ( 'NONE', #290, .T. ) ;
#47 = CC_DESIGN_APPROVAL ( #123, ( #79 ) ) ;
#48 = EDGE_CURVE ( 'NONE', #228, #80, #85, .T. ) ;
#49 = CARTESIAN_POINT ( 'NONE',  ( 0.000000000000000000, 0.000000000000000000, 5.199999999999996625 ) ) ;
#50 = CALENDAR_DATE ( 2022, 7, 7 ) ;
#51 =( NAMED_UNIT ( * ) PLANE_ANGLE_UNIT ( ) SI_UNIT ( $, .RADIAN. ) );
#52 = APPLICATION_PROTOCOL_DEFINITION ( 'international standard', 'config_control_design', 1994, #178 ) ;
#53 = EDGE_LOOP ( 'NONE', ( #264, #132 ) ) ;
#54 = ORIENTED_EDGE ( 'NONE', *, *, #202, .T. ) ;
#55 = ORIENTED_EDGE ( 'NONE', *, *, #151, .F. ) ;
#56 = VERTEX_POINT ( 'NONE', #205 ) ;
#57 = CC_DESIGN_SECURITY_CLASSIFICATION ( #126, ( #248 ) ) ;
#58 = ORIENTED_EDGE ( 'NONE', *, *, #75, .F. ) ;
#59 = DIRECTION ( 'NONE',  ( 1.000000000000000000, 0.000000000000000000, 0.000000000000000000 ) ) ;
#60 = EDGE_CURVE ( 'NONE', #62, #254, #275, .T. ) ;
#61 = CIRCLE ( 'NONE', #122, 3.200000000000000622 ) ;
#62 = VERTEX_POINT ( 'NONE', #176 ) ;
#63 = FACE_OUTER_BOUND ( 'NONE', #53, .T. ) ;
#64 = ADVANCED_FACE ( 'NONE', ( #152 ), #269, .T. ) ;
#65 = PRODUCT ( '7fee', '7fee', '', ( #121 ) ) ;
#66 = CARTESIAN_POINT ( 'NONE',  ( 0.000000000000000000, 0.000000000000000000, 5.199999999999996625 ) ) ;
#67 = APPROVAL_DATE_TIME ( #276, #134 ) ;
#68 = APPROVAL ( #74, 'NEURÈENÝ' ) ;
#69 = AXIS2_PLACEMENT_3D ( 'NONE', #2, #282, #97 ) ;
#70 = DIRECTION ( 'NONE',  ( -1.000000000000000000, 1.224646799147353207E-16, 0.000000000000000000 ) ) ;
#71 = ADVANCED_FACE ( 'NONE', ( #10 ), #84, .T. ) ;
#72 = DIRECTION ( 'NONE',  ( 1.000000000000000000, 0.000000000000000000, -0.000000000000000000 ) ) ;
#73 = CYLINDRICAL_SURFACE ( 'NONE', #69, 3.000000000000000444 ) ;
#74 = APPROVAL_STATUS ( 'not_yet_approved' ) ;
#75 = EDGE_CURVE ( 'NONE', #128, #177, #246, .T. ) ;
#76 = CARTESIAN_POINT ( 'NONE',  ( -3.000000000000000444, 0.000000000000000000, 5.199999999999996625 ) ) ;
#77 = PERSON_AND_ORGANIZATION ( #281, #30 ) ;
#78 = COORDINATED_UNIVERSAL_TIME_OFFSET ( 1, 0, .AHEAD. ) ;
#79 = PRODUCT_DEFINITION ( 'NEZNÁMÝ', '', #248, #188 ) ;
#80 = VERTEX_POINT ( 'NONE', #271 ) ;
#81 = ORIENTED_EDGE ( 'NONE', *, *, #148, .F. ) ;
#82 = CIRCLE ( 'NONE', #296, 0.1999999999999996503 ) ;
#83 = ORIENTED_EDGE ( 'NONE', *, *, #4, .T. ) ;
#84 = CYLINDRICAL_SURFACE ( 'NONE', #289, 6.000000000000000888 ) ;
#85 = CIRCLE ( 'NONE', #219, 6.000000000000000888 ) ;
#86 = DIRECTION ( 'NONE',  ( 1.000000000000000000, 0.000000000000000000, 0.000000000000000000 ) ) ;
#87 = DIRECTION ( 'NONE',  ( -0.000000000000000000, -0.000000000000000000, -1.000000000000000000 ) ) ;
#88 = PERSON_AND_ORGANIZATION ( #281, #30 ) ;
#89 = CARTESIAN_POINT ( 'NONE',  ( 0.000000000000000000, 0.000000000000000000, 5.000000000000000000 ) ) ;
#90 = LINE ( 'NONE', #208, #210 ) ;
#91 = CC_DESIGN_PERSON_AND_ORGANIZATION_ASSIGNMENT ( #260, #24, ( #65 ) ) ;
#92 = DIRECTION ( 'NONE',  ( 1.000000000000000000, 0.000000000000000000, 0.000000000000000000 ) ) ;
#93 = AXIS2_PLACEMENT_3D ( 'NONE', #40, #21, #92 ) ;
#94 = CARTESIAN_POINT ( 'NONE',  ( -3.200000000000000622, 3.918869757271530953E-16, 5.199999999999996625 ) ) ;
#95 = FACE_OUTER_BOUND ( 'NONE', #194, .T. ) ;
#96 = DIRECTION ( 'NONE',  ( 1.000000000000000000, 0.000000000000000000, 0.000000000000000000 ) ) ;
#97 = DIRECTION ( 'NONE',  ( -1.000000000000000000, 0.000000000000000000, 0.000000000000000000 ) ) ;
#98 = ORIENTED_EDGE ( 'NONE', *, *, #48, .F. ) ;
#99 = APPROVAL_STATUS ( 'not_yet_approved' ) ;
#100 = ORIENTED_EDGE ( 'NONE', *, *, #300, .F. ) ;
#101 = ADVANCED_FACE ( 'NONE', ( #155, #63 ), #36, .T. ) ;
#102 = LOCAL_TIME ( 12, 14, 1.000000000000000000, #78 ) ;
#103 = CC_DESIGN_PERSON_AND_ORGANIZATION_ASSIGNMENT ( #77, #272, ( #79 ) ) ;
#104 = DIRECTION ( 'NONE',  ( -1.000000000000000000, 0.000000000000000000, 0.000000000000000000 ) ) ;
#105 = CARTESIAN_POINT ( 'NONE',  ( 0.000000000000000000, 0.000000000000000000, 5.000000000000000000 ) ) ;
#106 = CC_DESIGN_DATE_AND_TIME_ASSIGNMENT ( #301, #15, ( #79 ) ) ;
#107 = LINE ( 'NONE', #172, #267 ) ;
#108 = CARTESIAN_POINT ( 'NONE',  ( 3.200000000000000622, 0.000000000000000000, 4.999999999999998224 ) ) ;
#109 = CALENDAR_DATE ( 2022, 7, 7 ) ;
#110 = AXIS2_PLACEMENT_3D ( 'NONE', #250, #119, #96 ) ;
#111 = ORIENTED_EDGE ( 'NONE', *, *, #45, .F. ) ;
#112 = PRODUCT_DEFINITION_SHAPE ( 'NONE', 'NONE',  #79 ) ;
#113 = CARTESIAN_POINT ( 'NONE',  ( 0.000000000000000000, 0.000000000000000000, 130.0000000000000000 ) ) ;
#114 = CARTESIAN_POINT ( 'NONE',  ( 0.000000000000000000, 0.000000000000000000, 5.000000000000000000 ) ) ;
#115 = DIRECTION ( 'NONE',  ( 1.000000000000000000, 0.000000000000000000, 0.000000000000000000 ) ) ;
#116 = DIRECTION ( 'NONE',  ( -1.000000000000000000, 0.000000000000000000, 0.000000000000000000 ) ) ;
#117 = APPROVAL_STATUS ( 'not_yet_approved' ) ;
#118 = DIRECTION ( 'NONE',  ( 0.000000000000000000, -1.000000000000000000, 0.000000000000000000 ) ) ;
#119 = DIRECTION ( 'NONE',  ( 0.000000000000000000, 0.000000000000000000, 1.000000000000000000 ) ) ;
#120 = CIRCLE ( 'NONE', #169, 6.000000000000000888 ) ;
#121 = MECHANICAL_CONTEXT ( 'NONE', #178, 'mechanical' ) ;
#122 = AXIS2_PLACEMENT_3D ( 'NONE', #279, #143, #181 ) ;
#123 = APPROVAL ( #117, 'NEURÈENÝ' ) ;
#124 = ORIENTED_EDGE ( 'NONE', *, *, #201, .T. ) ;
#125 = ORIENTED_EDGE ( 'NONE', *, *, #60, .F. ) ;
#126 = SECURITY_CLASSIFICATION ( '', '', #136 ) ;
#127 = DIRECTION ( 'NONE',  ( 0.000000000000000000, 0.000000000000000000, 1.000000000000000000 ) ) ;
#128 = VERTEX_POINT ( 'NONE', #108 ) ;
#129 = AXIS2_PLACEMENT_3D ( 'NONE', #257, #230, #163 ) ;
#130 = DIRECTION ( 'NONE',  ( -0.000000000000000000, -0.000000000000000000, -1.000000000000000000 ) ) ;
#131 = CARTESIAN_POINT ( 'NONE',  ( 0.000000000000000000, 0.000000000000000000, 5.000000000000000000 ) ) ;
#132 = ORIENTED_EDGE ( 'NONE', *, *, #300, .T. ) ;
#133 = DATE_AND_TIME ( #50, #32 ) ;
#134 = APPROVAL ( #99, 'NEURÈENÝ' ) ;
#135 = CARTESIAN_POINT ( 'NONE',  ( 0.000000000000000000, 0.000000000000000000, 0.000000000000000000 ) ) ;
#136 = SECURITY_CLASSIFICATION_LEVEL ( 'unclassified' ) ;
#137 = DIRECTION ( 'NONE',  ( 0.000000000000000000, 0.000000000000000000, 1.000000000000000000 ) ) ;
#138 = TOROIDAL_SURFACE ( 'NONE', #241, 3.200000000000000622, 0.2000000000000000111 ) ;
#139 = DIRECTION ( 'NONE',  ( 1.000000000000000000, 0.000000000000000000, 0.000000000000000000 ) ) ;
#140 = AXIS2_PLACEMENT_3D ( 'NONE', #113, #211, #189 ) ;
#141 = CARTESIAN_POINT ( 'NONE',  ( 3.200000000000000622, 0.000000000000000000, 5.199999999999996625 ) ) ;
#142 = VECTOR ( 'NONE', #20, 1000.000000000000000 ) ;
#143 = DIRECTION ( 'NONE',  ( -0.000000000000000000, -0.000000000000000000, -1.000000000000000000 ) ) ;
#144 = COORDINATED_UNIVERSAL_TIME_OFFSET ( 1, 0, .AHEAD. ) ;
#145 = DATE_AND_TIME ( #109, #270 ) ;
#146 = VERTEX_POINT ( 'NONE', #186 ) ;
#147 = CIRCLE ( 'NONE', #159, 0.2000000000000000944 ) ;
#148 = EDGE_CURVE ( 'NONE', #56, #146, #268, .T. ) ;
#149 = ORIENTED_EDGE ( 'NONE', *, *, #242, .F. ) ;
#150 = LOCAL_TIME ( 12, 14, 1.000000000000000000, #144 ) ;
#151 = EDGE_CURVE ( 'NONE', #146, #56, #173, .T. ) ;
#152 = FACE_OUTER_BOUND ( 'NONE', #16, .T. ) ;
#153 = AXIS2_PLACEMENT_3D ( 'NONE', #200, #87, #59 ) ;
#154 = ORIENTED_EDGE ( 'NONE', *, *, #197, .F. ) ;
#155 = FACE_BOUND ( 'NONE', #261, .T. ) ;
#156 = ORIENTED_EDGE ( 'NONE', *, *, #201, .F. ) ;
#157 = PERSON_AND_ORGANIZATION ( #281, #30 ) ;
#158 = DIRECTION ( 'NONE',  ( 0.000000000000000000, 0.000000000000000000, 1.000000000000000000 ) ) ;
#159 = AXIS2_PLACEMENT_3D ( 'NONE', #94, #256, #70 ) ;
#160 = CARTESIAN_POINT ( 'NONE',  ( 0.000000000000000000, 0.000000000000000000, 130.0000000000000000 ) ) ;
#161 = FACE_OUTER_BOUND ( 'NONE', #247, .T. ) ;
#162 = DIRECTION ( 'NONE',  ( 0.000000000000000000, 0.000000000000000000, 1.000000000000000000 ) ) ;
#163 = DIRECTION ( 'NONE',  ( 1.000000000000000000, 0.000000000000000000, -0.000000000000000000 ) ) ;
#164 = APPROVAL_PERSON_ORGANIZATION ( #303, #68, #226 ) ;
#165 = PERSON_AND_ORGANIZATION_ROLE ( 'creator' ) ;
#166 = CARTESIAN_POINT ( 'NONE',  ( -3.200000000000000622, 3.918869757271530953E-16, 4.999999999999998224 ) ) ;
#167 = PERSON_AND_ORGANIZATION ( #281, #30 ) ;
#168 = ORIENTED_EDGE ( 'NONE', *, *, #263, .F. ) ;
#169 = AXIS2_PLACEMENT_3D ( 'NONE', #114, #43, #139 ) ;
#170 = VERTEX_POINT ( 'NONE', #76 ) ;
#171 = LINE ( 'NONE', #266, #31 ) ;
#172 = CARTESIAN_POINT ( 'NONE',  ( -6.000000000000000888, 0.000000000000000000, 5.000000000000000000 ) ) ;
#173 = CIRCLE ( 'NONE', #174, 3.000000000000000444 ) ;
#174 = AXIS2_PLACEMENT_3D ( 'NONE', #259, #285, #232 ) ;
#175 = APPROVAL_PERSON_ORGANIZATION ( #167, #123, #217 ) ;
#176 = CARTESIAN_POINT ( 'NONE',  ( -6.000000000000000888, 0.000000000000000000, 5.000000000000000000 ) ) ;
#177 = VERTEX_POINT ( 'NONE', #166 ) ;
#178 = APPLICATION_CONTEXT ( 'configuration controlled 3d designs of mechanical parts and assemblies' ) ;
#179 = EDGE_CURVE ( 'NONE', #218, #170, #22, .T. ) ;
#180 = APPROVAL_DATE_TIME ( #145, #68 ) ;
#181 = DIRECTION ( 'NONE',  ( 1.000000000000000000, 0.000000000000000000, 0.000000000000000000 ) ) ;
#182 = LOCAL_TIME ( 12, 14, 1.000000000000000000, #216 ) ;
#183 = DIRECTION ( 'NONE',  ( -0.000000000000000000, -0.000000000000000000, -1.000000000000000000 ) ) ;
#184 = CARTESIAN_POINT ( 'NONE',  ( 3.000000000000000444, 3.673940397442060361E-16, 5.199999999999996625 ) ) ;
#185 = EDGE_CURVE ( 'NONE', #170, #218, #265, .T. ) ;
#186 = CARTESIAN_POINT ( 'NONE',  ( 3.000000000000000444, 3.673940397442060361E-16, 130.0000000000000000 ) ) ;
#187 = CALENDAR_DATE ( 2022, 7, 7 ) ;
#188 = DESIGN_CONTEXT ( 'detailed design', #6, 'design' ) ;
#189 = DIRECTION ( 'NONE',  ( 1.000000000000000000, 0.000000000000000000, 0.000000000000000000 ) ) ;
#190 = CC_DESIGN_APPROVAL ( #134, ( #126 ) ) ;
#191 = CC_DESIGN_DATE_AND_TIME_ASSIGNMENT ( #133, #29, ( #126 ) ) ;
#192 = ORIENTED_EDGE ( 'NONE', *, *, #179, .T. ) ;
#193 = AXIS2_PLACEMENT_3D ( 'NONE', #131, #225, #14 ) ;
#194 = EDGE_LOOP ( 'NONE', ( #198, #38 ) ) ;
#195 = CIRCLE ( 'NONE', #220, 6.000000000000000888 ) ;
#196 = ORIENTED_EDGE ( 'NONE', *, *, #75, .T. ) ;
#197 = EDGE_CURVE ( 'NONE', #146, #218, #90, .T. ) ;
#198 = ORIENTED_EDGE ( 'NONE', *, *, #148, .T. ) ;
#199 = AXIS2_PLACEMENT_3D ( 'NONE', #23, #304, #116 ) ;
#200 = CARTESIAN_POINT ( 'NONE',  ( 0.000000000000000000, 0.000000000000000000, 5.000000000000000000 ) ) ;
#201 = EDGE_CURVE ( 'NONE', #80, #228, #195, .T. ) ;
#202 = EDGE_CURVE ( 'NONE', #177, #128, #61, .T. ) ;
#203 = EDGE_LOOP ( 'NONE', ( #111, #125, #83, #124 ) ) ;
#204 = FACE_OUTER_BOUND ( 'NONE', #273, .T. ) ;
#205 = CARTESIAN_POINT ( 'NONE',  ( -3.000000000000000444, 0.000000000000000000, 130.0000000000000000 ) ) ;
#206 = EDGE_CURVE ( 'NONE', #218, #128, #82, .T. ) ;
#207 = DATE_AND_TIME ( #37, #102 ) ;
#208 = CARTESIAN_POINT ( 'NONE',  ( 3.000000000000000444, 3.673940397442060361E-16, 130.0000000000000000 ) ) ;
#209 = PLANE ( 'NONE',  #129 ) ;
#210 = VECTOR ( 'NONE', #183, 1000.000000000000000 ) ;
#211 = DIRECTION ( 'NONE',  ( 0.000000000000000000, 0.000000000000000000, 1.000000000000000000 ) ) ;
#212 = ADVANCED_BREP_SHAPE_REPRESENTATION ( '7fee', ( #236, #110 ), #278 ) ;
#213 = LINE ( 'NONE', #231, #142 ) ;
#214 = SHAPE_DEFINITION_REPRESENTATION ( #112, #212 ) ;
#215 = CARTESIAN_POINT ( 'NONE',  ( 0.000000000000000000, 0.000000000000000000, 5.199999999999996625 ) ) ;
#216 = COORDINATED_UNIVERSAL_TIME_OFFSET ( 1, 0, .AHEAD. ) ;
#217 = APPROVAL_ROLE ( '' ) ;
#218 = VERTEX_POINT ( 'NONE', #184 ) ;
#219 = AXIS2_PLACEMENT_3D ( 'NONE', #34, #297, #86 ) ;
#220 = AXIS2_PLACEMENT_3D ( 'NONE', #135, #137, #305 ) ;
#221 = DIRECTION ( 'NONE',  ( 1.000000000000000000, 0.000000000000000000, 0.000000000000000000 ) ) ;
#222 = AXIS2_PLACEMENT_3D ( 'NONE', #245, #223, #12 ) ;
#223 = DIRECTION ( 'NONE',  ( -0.000000000000000000, -0.000000000000000000, -1.000000000000000000 ) ) ;
#224 = ORIENTED_EDGE ( 'NONE', *, *, #185, .T. ) ;
#225 = DIRECTION ( 'NONE',  ( 0.000000000000000000, 0.000000000000000000, 1.000000000000000000 ) ) ;
#226 = APPROVAL_ROLE ( '' ) ;
#227 = ADVANCED_FACE ( 'NONE', ( #95 ), #280, .T. ) ;
#228 = VERTEX_POINT ( 'NONE', #235 ) ;
#229 = APPROVAL_ROLE ( '' ) ;
#230 = DIRECTION ( 'NONE',  ( 0.000000000000000000, 0.000000000000000000, 1.000000000000000000 ) ) ;
#231 = CARTESIAN_POINT ( 'NONE',  ( -3.000000000000000444, 0.000000000000000000, 130.0000000000000000 ) ) ;
#232 = DIRECTION ( 'NONE',  ( 1.000000000000000000, 0.000000000000000000, 0.000000000000000000 ) ) ;
#233 = AXIS2_PLACEMENT_3D ( 'NONE', #160, #234, #72 ) ;
#234 = DIRECTION ( 'NONE',  ( 0.000000000000000000, 0.000000000000000000, 1.000000000000000000 ) ) ;
#235 = CARTESIAN_POINT ( 'NONE',  ( 6.000000000000000888, 7.347880794884120722E-16, 0.000000000000000000 ) ) ;
#236 = MANIFOLD_SOLID_BREP ( 'Zaoblit1', #44 ) ;
#237 = ADVANCED_FACE ( 'NONE', ( #46 ), #209, .F. ) ;
#238 = PERSON_AND_ORGANIZATION_ROLE ( 'design_supplier' ) ;
#239 = ORIENTED_EDGE ( 'NONE', *, *, #202, .F. ) ;
#240 = ADVANCED_FACE ( 'NONE', ( #42 ), #5, .F. ) ;
#241 = AXIS2_PLACEMENT_3D ( 'NONE', #66, #127, #299 ) ;
#242 = EDGE_CURVE ( 'NONE', #170, #177, #147, .T. ) ;
#243 = EDGE_LOOP ( 'NONE', ( #154, #81, #302, #224 ) ) ;
#244 = CC_DESIGN_PERSON_AND_ORGANIZATION_ASSIGNMENT ( #88, #26, ( #126 ) ) ;
#245 = CARTESIAN_POINT ( 'NONE',  ( 0.000000000000000000, 0.000000000000000000, 130.0000000000000000 ) ) ;
#246 = CIRCLE ( 'NONE', #153, 3.200000000000000622 ) ;
#247 = EDGE_LOOP ( 'NONE', ( #100, #9, #33, #249 ) ) ;
#248 = PRODUCT_DEFINITION_FORMATION_WITH_SPECIFIED_SOURCE ( 'LIBOVOLNÝ', '', #65, .NOT_KNOWN. ) ;
#249 = ORIENTED_EDGE ( 'NONE', *, *, #4, .F. ) ;
#250 = CARTESIAN_POINT ( 'NONE',  ( 0.000000000000000000, 0.000000000000000000, 0.000000000000000000 ) ) ;
#251 = EDGE_LOOP ( 'NONE', ( #149, #298, #292, #239 ) ) ;
#252 = APPROVAL_DATE_TIME ( #207, #123 ) ;
#253 = ADVANCED_FACE ( 'NONE', ( #161 ), #307, .T. ) ;
#254 = VERTEX_POINT ( 'NONE', #255 ) ;
#255 = CARTESIAN_POINT ( 'NONE',  ( 6.000000000000000888, 7.347880794884120722E-16, 5.000000000000000000 ) ) ;
#256 = DIRECTION ( 'NONE',  ( 1.224646799147353207E-16, 1.000000000000000000, -0.000000000000000000 ) ) ;
#257 = CARTESIAN_POINT ( 'NONE',  ( 0.000000000000000000, 0.000000000000000000, 0.000000000000000000 ) ) ;
#258 = CC_DESIGN_APPROVAL ( #68, ( #248 ) ) ;
#259 = CARTESIAN_POINT ( 'NONE',  ( 0.000000000000000000, 0.000000000000000000, 130.0000000000000000 ) ) ;
#260 = PERSON_AND_ORGANIZATION ( #281, #30 ) ;
#261 = EDGE_LOOP ( 'NONE', ( #196, #54 ) ) ;
#262 = AXIS2_PLACEMENT_3D ( 'NONE', #49, #162, #25 ) ;
#263 = EDGE_CURVE ( 'NONE', #56, #170, #213, .T. ) ;
#264 = ORIENTED_EDGE ( 'NONE', *, *, #60, .T. ) ;
#265 = CIRCLE ( 'NONE', #262, 3.000000000000000444 ) ;
#266 = CARTESIAN_POINT ( 'NONE',  ( 6.000000000000000888, 7.347880794884120722E-16, 5.000000000000000000 ) ) ;
#267 = VECTOR ( 'NONE', #35, 1000.000000000000000 ) ;
#268 = CIRCLE ( 'NONE', #140, 3.000000000000000444 ) ;
#269 = CYLINDRICAL_SURFACE ( 'NONE', #222, 3.000000000000000444 ) ;
#270 = LOCAL_TIME ( 12, 14, 1.000000000000000000, #286 ) ;
#271 = CARTESIAN_POINT ( 'NONE',  ( -6.000000000000000888, 0.000000000000000000, 0.000000000000000000 ) ) ;
#272 = PERSON_AND_ORGANIZATION_ROLE ( 'creator' ) ;
#273 = EDGE_LOOP ( 'NONE', ( #8, #295, #58, #293 ) ) ;
#274 = PRODUCT_RELATED_PRODUCT_CATEGORY ( 'detail', '', ( #65 ) ) ;
#275 = CIRCLE ( 'NONE', #11, 6.000000000000000888 ) ;
#276 = DATE_AND_TIME ( #17, #150 ) ;
#277 = DIRECTION ( 'NONE',  ( 0.000000000000000000, 0.000000000000000000, -1.000000000000000000 ) ) ;
#278 =( GEOMETRIC_REPRESENTATION_CONTEXT ( 3 ) GLOBAL_UNCERTAINTY_ASSIGNED_CONTEXT ( ( #291 ) ) GLOBAL_UNIT_ASSIGNED_CONTEXT ( ( #27, #51, #283 ) ) REPRESENTATION_CONTEXT ( 'NONE', 'WORKASPACE' ) );
#279 = CARTESIAN_POINT ( 'NONE',  ( 0.000000000000000000, 0.000000000000000000, 5.000000000000000000 ) ) ;
#280 = PLANE ( 'NONE',  #233 ) ;
#281 = PERSON ( 'NEURÈENÝ', 'NEURÈENÝ', 'NEURÈENÝ', ('NEURÈENÝ'), ('NEURÈENÝ'), ('NEURÈENÝ') ) ;
#282 = DIRECTION ( 'NONE',  ( -0.000000000000000000, -0.000000000000000000, -1.000000000000000000 ) ) ;
#283 =( NAMED_UNIT ( * ) SI_UNIT ( $, .STERADIAN. ) SOLID_ANGLE_UNIT ( ) );
#284 = APPROVAL_PERSON_ORGANIZATION ( #7, #134, #229 ) ;
#285 = DIRECTION ( 'NONE',  ( 0.000000000000000000, 0.000000000000000000, 1.000000000000000000 ) ) ;
#286 = COORDINATED_UNIVERSAL_TIME_OFFSET ( 1, 0, .AHEAD. ) ;
#287 = ORIENTED_EDGE ( 'NONE', *, *, #197, .T. ) ;
#288 = CC_DESIGN_PERSON_AND_ORGANIZATION_ASSIGNMENT ( #157, #238, ( #248 ) ) ;
#289 = AXIS2_PLACEMENT_3D ( 'NONE', #105, #13, #104 ) ;
#290 = EDGE_LOOP ( 'NONE', ( #156, #98 ) ) ;
#291 = UNCERTAINTY_MEASURE_WITH_UNIT (LENGTH_MEASURE( 1.000000000000000082E-05 ), #27, 'distance_accuracy_value', 'NONE');
#292 = ORIENTED_EDGE ( 'NONE', *, *, #206, .T. ) ;
#293 = ORIENTED_EDGE ( 'NONE', *, *, #206, .F. ) ;
#294 = ADVANCED_FACE ( 'NONE', ( #1 ), #73, .T. ) ;
#295 = ORIENTED_EDGE ( 'NONE', *, *, #242, .T. ) ;
#296 = AXIS2_PLACEMENT_3D ( 'NONE', #141, #118, #277 ) ;
#297 = DIRECTION ( 'NONE',  ( 0.000000000000000000, 0.000000000000000000, 1.000000000000000000 ) ) ;
#298 = ORIENTED_EDGE ( 'NONE', *, *, #179, .F. ) ;
#299 = DIRECTION ( 'NONE',  ( 1.000000000000000000, 0.000000000000000000, 0.000000000000000000 ) ) ;
#300 = EDGE_CURVE ( 'NONE', #254, #62, #120, .T. ) ;
#301 = DATE_AND_TIME ( #187, #182 ) ;
#302 = ORIENTED_EDGE ( 'NONE', *, *, #263, .T. ) ;
#303 = PERSON_AND_ORGANIZATION ( #281, #30 ) ;
#304 = DIRECTION ( 'NONE',  ( -0.000000000000000000, -0.000000000000000000, -1.000000000000000000 ) ) ;
#305 = DIRECTION ( 'NONE',  ( 1.000000000000000000, 0.000000000000000000, 0.000000000000000000 ) ) ;
#306 = AXIS2_PLACEMENT_3D ( 'NONE', #215, #18, #115 ) ;
#307 = CYLINDRICAL_SURFACE ( 'NONE', #199, 6.000000000000000888 ) ;
ENDSEC;
END-ISO-10303-21;
