ISO-10303-21;
HEADER;
FILE_DESCRIPTION (( 'STEP AP203' ),
    '1' );
FILE_NAME ('e6e4.STEP',
    '2022-07-07T10:12:36',
    ( '' ),
    ( '' ),
    'SwSTEP 2.0',
    'SolidWorks 2019',
    '' );
FILE_SCHEMA (( 'CONFIG_CONTROL_DESIGN' ));
ENDSEC;

DATA;
#1 = CIRCLE ( 'NONE', #218, 6.000000000000000888 ) ;
#2 = EDGE_CURVE ( 'NONE', #42, #278, #54, .T. ) ;
#3 = DIRECTION ( 'NONE',  ( -1.000000000000000000, 0.000000000000000000, 0.000000000000000000 ) ) ;
#4 = CARTESIAN_POINT ( 'NONE',  ( 0.000000000000000000, 0.000000000000000000, 5.000000000000000000 ) ) ;
#5 = ORIENTED_EDGE ( 'NONE', *, *, #80, .F. ) ;
#6 = EDGE_CURVE ( 'NONE', #65, #182, #130, .T. ) ;
#7 = CIRCLE ( 'NONE', #243, 0.1999999999999996503 ) ;
#8 = MECHANICAL_CONTEXT ( 'NONE', #27, 'mechanical' ) ;
#9 = APPROVAL_DATE_TIME ( #297, #116 ) ;
#10 = DIRECTION ( 'NONE',  ( 0.000000000000000000, 0.000000000000000000, 1.000000000000000000 ) ) ;
#11 = MANIFOLD_SOLID_BREP ( 'Zaoblit1', #180 ) ;
#12 = DIRECTION ( 'NONE',  ( 0.000000000000000000, 0.000000000000000000, 1.000000000000000000 ) ) ;
#13 = ORIENTED_EDGE ( 'NONE', *, *, #108, .F. ) ;
#14 = DIRECTION ( 'NONE',  ( -1.000000000000000000, 0.000000000000000000, 0.000000000000000000 ) ) ;
#15 = PLANE ( 'NONE',  #173 ) ;
#16 = EDGE_CURVE ( 'NONE', #278, #42, #129, .T. ) ;
#17 = APPROVAL_STATUS ( 'not_yet_approved' ) ;
#18 = LOCAL_TIME ( 12, 12, 36.00000000000000000, #163 ) ;
#19 = PLANE ( 'NONE',  #196 ) ;
#20 = ORIENTED_EDGE ( 'NONE', *, *, #105, .T. ) ;
#21 = ADVANCED_FACE ( 'NONE', ( #71 ), #15, .T. ) ;
#22 = CARTESIAN_POINT ( 'NONE',  ( 6.000000000000000888, 7.347880794884120722E-16, 0.000000000000000000 ) ) ;
#23 = VERTEX_POINT ( 'NONE', #69 ) ;
#24 = DATE_AND_TIME ( #303, #18 ) ;
#25 = CC_DESIGN_DATE_AND_TIME_ASSIGNMENT ( #64, #154, ( #232 ) ) ;
#26 = CARTESIAN_POINT ( 'NONE',  ( -3.200000000000000622, 3.918869757271530953E-16, 5.199999999999982414 ) ) ;
#27 = APPLICATION_CONTEXT ( 'configuration controlled 3d designs of mechanical parts and assemblies' ) ;
#28 = PERSON_AND_ORGANIZATION ( #248, #73 ) ;
#29 = AXIS2_PLACEMENT_3D ( 'NONE', #235, #241, #77 ) ;
#30 = CARTESIAN_POINT ( 'NONE',  ( 0.000000000000000000, 0.000000000000000000, 5.199999999999982414 ) ) ;
#31 = DIRECTION ( 'NONE',  ( 1.000000000000000000, 0.000000000000000000, 0.000000000000000000 ) ) ;
#32 = PRODUCT_RELATED_PRODUCT_CATEGORY ( 'detail', '', ( #294 ) ) ;
#33 = EDGE_CURVE ( 'NONE', #182, #65, #1, .T. ) ;
#34 = AXIS2_PLACEMENT_3D ( 'NONE', #106, #300, #174 ) ;
#35 = FACE_OUTER_BOUND ( 'NONE', #234, .T. ) ;
#36 = FACE_OUTER_BOUND ( 'NONE', #78, .T. ) ;
#37 = CC_DESIGN_PERSON_AND_ORGANIZATION_ASSIGNMENT ( #112, #134, ( #294 ) ) ;
#38 = DIRECTION ( 'NONE',  ( 0.000000000000000000, 0.000000000000000000, 1.000000000000000000 ) ) ;
#39 = AXIS2_PLACEMENT_3D ( 'NONE', #30, #56, #304 ) ;
#40 = AXIS2_PLACEMENT_3D ( 'NONE', #144, #233, #99 ) ;
#41 = VECTOR ( 'NONE', #289, 1000.000000000000000 ) ;
#42 = VERTEX_POINT ( 'NONE', #302 ) ;
#43 = LINE ( 'NONE', #90, #83 ) ;
#44 = CARTESIAN_POINT ( 'NONE',  ( 0.000000000000000000, 0.000000000000000000, 5.000000000000000000 ) ) ;
#45 = APPROVAL_DATE_TIME ( #236, #195 ) ;
#46 = ORIENTED_EDGE ( 'NONE', *, *, #175, .F. ) ;
#47 = AXIS2_PLACEMENT_3D ( 'NONE', #178, #207, #254 ) ;
#48 = APPROVAL_PERSON_ORGANIZATION ( #228, #195, #159 ) ;
#49 = DIRECTION ( 'NONE',  ( 0.000000000000000000, -1.000000000000000000, 0.000000000000000000 ) ) ;
#50 = DIRECTION ( 'NONE',  ( 0.000000000000000000, 0.000000000000000000, 1.000000000000000000 ) ) ;
#51 = LINE ( 'NONE', #261, #161 ) ;
#52 = ORIENTED_EDGE ( 'NONE', *, *, #33, .F. ) ;
#53 = PERSON_AND_ORGANIZATION_ROLE ( 'creator' ) ;
#54 = CIRCLE ( 'NONE', #47, 3.200000000000000622 ) ;
#55 = CIRCLE ( 'NONE', #238, 0.2000000000000000944 ) ;
#56 = DIRECTION ( 'NONE',  ( 0.000000000000000000, 0.000000000000000000, 1.000000000000000000 ) ) ;
#57 = ORIENTED_EDGE ( 'NONE', *, *, #16, .T. ) ;
#58 = ADVANCED_FACE ( 'NONE', ( #91 ), #158, .T. ) ;
#59 = CC_DESIGN_SECURITY_CLASSIFICATION ( #220, ( #181 ) ) ;
#60 = ADVANCED_FACE ( 'NONE', ( #142 ), #111, .T. ) ;
#61 = DIRECTION ( 'NONE',  ( -0.000000000000000000, -0.000000000000000000, -1.000000000000000000 ) ) ;
#62 = APPROVAL_STATUS ( 'not_yet_approved' ) ;
#63 = DIRECTION ( 'NONE',  ( 1.000000000000000000, 0.000000000000000000, -0.000000000000000000 ) ) ;
#64 = DATE_AND_TIME ( #274, #149 ) ;
#65 = VERTEX_POINT ( 'NONE', #120 ) ;
#66 = CC_DESIGN_APPROVAL ( #195, ( #220 ) ) ;
#67 = DIRECTION ( 'NONE',  ( -0.000000000000000000, -0.000000000000000000, -1.000000000000000000 ) ) ;
#68 = EDGE_LOOP ( 'NONE', ( #298, #156, #128, #46 ) ) ;
#69 = CARTESIAN_POINT ( 'NONE',  ( -6.000000000000000888, 0.000000000000000000, 0.000000000000000000 ) ) ;
#70 = CARTESIAN_POINT ( 'NONE',  ( -3.000000000000000444, 0.000000000000000000, 805.0000000000000000 ) ) ;
#71 = FACE_OUTER_BOUND ( 'NONE', #82, .T. ) ;
#72 = DATE_AND_TIME ( #281, #272 ) ;
#73 = ORGANIZATION ( 'NEURÈENÝ', 'NEURÈENÝ', '' ) ;
#74 = CARTESIAN_POINT ( 'NONE',  ( 3.200000000000000622, 0.000000000000000000, 5.199999999999982414 ) ) ;
#75 = ORIENTED_EDGE ( 'NONE', *, *, #215, .F. ) ;
#76 = DIRECTION ( 'NONE',  ( -0.000000000000000000, -0.000000000000000000, -1.000000000000000000 ) ) ;
#77 = DIRECTION ( 'NONE',  ( 1.000000000000000000, 0.000000000000000000, 0.000000000000000000 ) ) ;
#78 = EDGE_LOOP ( 'NONE', ( #5, #13 ) ) ;
#79 = CIRCLE ( 'NONE', #29, 6.000000000000000888 ) ;
#80 = EDGE_CURVE ( 'NONE', #23, #94, #268, .T. ) ;
#81 = CIRCLE ( 'NONE', #34, 3.000000000000000444 ) ;
#82 = EDGE_LOOP ( 'NONE', ( #280, #291 ) ) ;
#83 = VECTOR ( 'NONE', #61, 1000.000000000000000 ) ;
#84 = AXIS2_PLACEMENT_3D ( 'NONE', #150, #98, #237 ) ;
#85 = PLANE ( 'NONE',  #101 ) ;
#86 = COORDINATED_UNIVERSAL_TIME_OFFSET ( 1, 0, .AHEAD. ) ;
#87 = ORIENTED_EDGE ( 'NONE', *, *, #110, .F. ) ;
#88 =( LENGTH_UNIT ( ) NAMED_UNIT ( * ) SI_UNIT ( .MILLI., .METRE. ) );
#89 = EDGE_LOOP ( 'NONE', ( #190, #224, #126, #75 ) ) ;
#90 = CARTESIAN_POINT ( 'NONE',  ( 3.000000000000000444, 3.673940397442060361E-16, 805.0000000000000000 ) ) ;
#91 = FACE_OUTER_BOUND ( 'NONE', #172, .T. ) ;
#92 = COORDINATED_UNIVERSAL_TIME_OFFSET ( 1, 0, .AHEAD. ) ;
#93 = FACE_OUTER_BOUND ( 'NONE', #283, .T. ) ;
#94 = VERTEX_POINT ( 'NONE', #22 ) ;
#95 = CARTESIAN_POINT ( 'NONE',  ( 0.000000000000000000, 0.000000000000000000, 805.0000000000000000 ) ) ;
#96 = AXIS2_PLACEMENT_3D ( 'NONE', #199, #275, #256 ) ;
#97 = PERSON_AND_ORGANIZATION_ROLE ( 'classification_officer' ) ;
#98 = DIRECTION ( 'NONE',  ( 0.000000000000000000, 0.000000000000000000, 1.000000000000000000 ) ) ;
#99 = DIRECTION ( 'NONE',  ( 1.000000000000000000, 0.000000000000000000, 0.000000000000000000 ) ) ;
#100 = CC_DESIGN_PERSON_AND_ORGANIZATION_ASSIGNMENT ( #28, #53, ( #181 ) ) ;
#101 = AXIS2_PLACEMENT_3D ( 'NONE', #270, #295, #63 ) ;
#102 = ADVANCED_FACE ( 'NONE', ( #211 ), #203, .F. ) ;
#103 = AXIS2_PLACEMENT_3D ( 'NONE', #296, #206, #3 ) ;
#104 = PRODUCT_DEFINITION_SHAPE ( 'NONE', 'NONE',  #232 ) ;
#105 = EDGE_CURVE ( 'NONE', #201, #151, #135, .T. ) ;
#106 = CARTESIAN_POINT ( 'NONE',  ( 0.000000000000000000, 0.000000000000000000, 805.0000000000000000 ) ) ;
#107 = DIRECTION ( 'NONE',  ( 1.000000000000000000, 0.000000000000000000, 0.000000000000000000 ) ) ;
#108 = EDGE_CURVE ( 'NONE', #94, #23, #79, .T. ) ;
#109 = PERSON_AND_ORGANIZATION_ROLE ( 'creator' ) ;
#110 = EDGE_CURVE ( 'NONE', #65, #94, #209, .T. ) ;
#111 = CYLINDRICAL_SURFACE ( 'NONE', #103, 6.000000000000000888 ) ;
#112 = PERSON_AND_ORGANIZATION ( #248, #73 ) ;
#113 = ORIENTED_EDGE ( 'NONE', *, *, #33, .T. ) ;
#114 = CARTESIAN_POINT ( 'NONE',  ( -3.200000000000000622, 3.918869757271530953E-16, 4.999999999999991118 ) ) ;
#115 = DIRECTION ( 'NONE',  ( 1.000000000000000000, 0.000000000000000000, -0.000000000000000000 ) ) ;
#116 = APPROVAL ( #62, 'NEURÈENÝ' ) ;
#117 = COORDINATED_UNIVERSAL_TIME_OFFSET ( 1, 0, .AHEAD. ) ;
#118 = DIRECTION ( 'NONE',  ( 1.000000000000000000, 0.000000000000000000, -0.000000000000000000 ) ) ;
#119 = DIRECTION ( 'NONE',  ( 1.000000000000000000, 0.000000000000000000, 0.000000000000000000 ) ) ;
#120 = CARTESIAN_POINT ( 'NONE',  ( 6.000000000000000888, 7.347880794884120722E-16, 5.000000000000000000 ) ) ;
#121 = DIRECTION ( 'NONE',  ( 0.000000000000000000, 0.000000000000000000, 1.000000000000000000 ) ) ;
#122 = CIRCLE ( 'NONE', #290, 3.000000000000000444 ) ;
#123 = EDGE_CURVE ( 'NONE', #151, #201, #122, .T. ) ;
#124 = DIRECTION ( 'NONE',  ( -0.000000000000000000, -0.000000000000000000, -1.000000000000000000 ) ) ;
#125 = CARTESIAN_POINT ( 'NONE',  ( 3.000000000000000444, 3.673940397442060361E-16, 5.199999999999982414 ) ) ;
#126 = ORIENTED_EDGE ( 'NONE', *, *, #123, .T. ) ;
#127 = DESIGN_CONTEXT ( 'detailed design', #288, 'design' ) ;
#128 = ORIENTED_EDGE ( 'NONE', *, *, #2, .F. ) ;
#129 = CIRCLE ( 'NONE', #188, 3.200000000000000622 ) ;
#130 = CIRCLE ( 'NONE', #299, 6.000000000000000888 ) ;
#131 = CC_DESIGN_APPROVAL ( #116, ( #232 ) ) ;
#132 = APPLICATION_PROTOCOL_DEFINITION ( 'international standard', 'config_control_design', 1994, #27 ) ;
#133 = EDGE_CURVE ( 'NONE', #182, #23, #51, .T. ) ;
#134 = PERSON_AND_ORGANIZATION_ROLE ( 'design_owner' ) ;
#135 = CIRCLE ( 'NONE', #39, 3.000000000000000444 ) ;
#136 = CARTESIAN_POINT ( 'NONE',  ( 0.000000000000000000, 0.000000000000000000, 5.000000000000000000 ) ) ;
#137 = APPROVAL_STATUS ( 'not_yet_approved' ) ;
#138 = ORIENTED_EDGE ( 'NONE', *, *, #123, .F. ) ;
#139 = CYLINDRICAL_SURFACE ( 'NONE', #143, 6.000000000000000888 ) ;
#140 = DIRECTION ( 'NONE',  ( 1.000000000000000000, 0.000000000000000000, 0.000000000000000000 ) ) ;
#141 = FACE_OUTER_BOUND ( 'NONE', #89, .T. ) ;
#142 = FACE_OUTER_BOUND ( 'NONE', #266, .T. ) ;
#143 = AXIS2_PLACEMENT_3D ( 'NONE', #202, #67, #14 ) ;
#144 = CARTESIAN_POINT ( 'NONE',  ( 0.000000000000000000, 0.000000000000000000, 0.000000000000000000 ) ) ;
#145 = ORIENTED_EDGE ( 'NONE', *, *, #133, .F. ) ;
#146 = CARTESIAN_POINT ( 'NONE',  ( -3.000000000000000444, 0.000000000000000000, 805.0000000000000000 ) ) ;
#147 = ORIENTED_EDGE ( 'NONE', *, *, #271, .F. ) ;
#148 = PERSON_AND_ORGANIZATION_ROLE ( 'design_supplier' ) ;
#149 = LOCAL_TIME ( 12, 12, 36.00000000000000000, #86 ) ;
#150 = CARTESIAN_POINT ( 'NONE',  ( 0.000000000000000000, 0.000000000000000000, 5.199999999999982414 ) ) ;
#151 = VERTEX_POINT ( 'NONE', #125 ) ;
#152 = CALENDAR_DATE ( 2022, 7, 7 ) ;
#153 = ADVANCED_FACE ( 'NONE', ( #141 ), #230, .T. ) ;
#154 = DATE_TIME_ROLE ( 'creation_date' ) ;
#155 = ORIENTED_EDGE ( 'NONE', *, *, #215, .T. ) ;
#156 = ORIENTED_EDGE ( 'NONE', *, *, #165, .T. ) ;
#157 = ADVANCED_FACE ( 'NONE', ( #187, #93 ), #19, .T. ) ;
#158 = CYLINDRICAL_SURFACE ( 'NONE', #96, 3.000000000000000444 ) ;
#159 = APPROVAL_ROLE ( '' ) ;
#160 = DIRECTION ( 'NONE',  ( -0.000000000000000000, -0.000000000000000000, -1.000000000000000000 ) ) ;
#161 = VECTOR ( 'NONE', #191, 1000.000000000000000 ) ;
#162 = TOROIDAL_SURFACE ( 'NONE', #189, 3.200000000000000622, 0.2000000000000000111 ) ;
#163 = COORDINATED_UNIVERSAL_TIME_OFFSET ( 1, 0, .AHEAD. ) ;
#164 = FACE_OUTER_BOUND ( 'NONE', #68, .T. ) ;
#165 = EDGE_CURVE ( 'NONE', #201, #278, #55, .T. ) ;
#166 = ORIENTED_EDGE ( 'NONE', *, *, #80, .T. ) ;
#167 = DIRECTION ( 'NONE',  ( -1.000000000000000000, 0.000000000000000000, 0.000000000000000000 ) ) ;
#168 = ADVANCED_BREP_SHAPE_REPRESENTATION ( 'e6e4', ( #11, #277 ), #252 ) ;
#169 = DIRECTION ( 'NONE',  ( 0.000000000000000000, 0.000000000000000000, 1.000000000000000000 ) ) ;
#170 = ORIENTED_EDGE ( 'NONE', *, *, #2, .T. ) ;
#171 = VERTEX_POINT ( 'NONE', #146 ) ;
#172 = EDGE_LOOP ( 'NONE', ( #186, #147, #155, #20 ) ) ;
#173 = AXIS2_PLACEMENT_3D ( 'NONE', #260, #38, #115 ) ;
#174 = DIRECTION ( 'NONE',  ( 1.000000000000000000, 0.000000000000000000, 0.000000000000000000 ) ) ;
#175 = EDGE_CURVE ( 'NONE', #151, #42, #7, .T. ) ;
#176 = DIRECTION ( 'NONE',  ( 0.000000000000000000, 0.000000000000000000, 1.000000000000000000 ) ) ;
#177 = CARTESIAN_POINT ( 'NONE',  ( 0.000000000000000000, 0.000000000000000000, 0.000000000000000000 ) ) ;
#178 = CARTESIAN_POINT ( 'NONE',  ( 0.000000000000000000, 0.000000000000000000, 5.000000000000000000 ) ) ;
#179 = COORDINATED_UNIVERSAL_TIME_OFFSET ( 1, 0, .AHEAD. ) ;
#180 = CLOSED_SHELL ( 'NONE', ( #240, #153, #60, #258, #157, #245, #58, #21, #102 ) ) ;
#181 = PRODUCT_DEFINITION_FORMATION_WITH_SPECIFIED_SOURCE ( 'LIBOVOLNÝ', '', #294, .NOT_KNOWN. ) ;
#182 = VERTEX_POINT ( 'NONE', #185 ) ;
#183 = ORIENTED_EDGE ( 'NONE', *, *, #110, .T. ) ;
#184 = DATE_TIME_ROLE ( 'classification_date' ) ;
#185 = CARTESIAN_POINT ( 'NONE',  ( -6.000000000000000888, 0.000000000000000000, 5.000000000000000000 ) ) ;
#186 = ORIENTED_EDGE ( 'NONE', *, *, #292, .F. ) ;
#187 = FACE_BOUND ( 'NONE', #231, .T. ) ;
#188 = AXIS2_PLACEMENT_3D ( 'NONE', #227, #160, #140 ) ;
#189 = AXIS2_PLACEMENT_3D ( 'NONE', #259, #121, #200 ) ;
#190 = ORIENTED_EDGE ( 'NONE', *, *, #265, .F. ) ;
#191 = DIRECTION ( 'NONE',  ( -0.000000000000000000, -0.000000000000000000, -1.000000000000000000 ) ) ;
#192 = LINE ( 'NONE', #70, #41 ) ;
#193 = ORIENTED_EDGE ( 'NONE', *, *, #16, .F. ) ;
#194 = ORIENTED_EDGE ( 'NONE', *, *, #165, .F. ) ;
#195 = APPROVAL ( #17, 'NEURÈENÝ' ) ;
#196 = AXIS2_PLACEMENT_3D ( 'NONE', #4, #169, #118 ) ;
#197 = LOCAL_TIME ( 12, 12, 36.00000000000000000, #117 ) ;
#198 = DIRECTION ( 'NONE',  ( 1.000000000000000000, 0.000000000000000000, 0.000000000000000000 ) ) ;
#199 = CARTESIAN_POINT ( 'NONE',  ( 0.000000000000000000, 0.000000000000000000, 805.0000000000000000 ) ) ;
#200 = DIRECTION ( 'NONE',  ( 1.000000000000000000, 0.000000000000000000, 0.000000000000000000 ) ) ;
#201 = VERTEX_POINT ( 'NONE', #262 ) ;
#202 = CARTESIAN_POINT ( 'NONE',  ( 0.000000000000000000, 0.000000000000000000, 5.000000000000000000 ) ) ;
#203 = TOROIDAL_SURFACE ( 'NONE', #84, 3.200000000000000622, 0.2000000000000000111 ) ;
#204 = DIRECTION ( 'NONE',  ( 1.000000000000000000, 0.000000000000000000, 0.000000000000000000 ) ) ;
#205 = APPROVAL_DATE_TIME ( #24, #239 ) ;
#206 = DIRECTION ( 'NONE',  ( -0.000000000000000000, -0.000000000000000000, -1.000000000000000000 ) ) ;
#207 = DIRECTION ( 'NONE',  ( -0.000000000000000000, -0.000000000000000000, -1.000000000000000000 ) ) ;
#208 = PERSON_AND_ORGANIZATION ( #248, #73 ) ;
#209 = LINE ( 'NONE', #282, #210 ) ;
#210 = VECTOR ( 'NONE', #124, 1000.000000000000000 ) ;
#211 = FACE_OUTER_BOUND ( 'NONE', #242, .T. ) ;
#212 = AXIS2_PLACEMENT_3D ( 'NONE', #221, #176, #107 ) ;
#213 = DIRECTION ( 'NONE',  ( 0.000000000000000000, 0.000000000000000000, -1.000000000000000000 ) ) ;
#214 = UNCERTAINTY_MEASURE_WITH_UNIT (LENGTH_MEASURE( 1.000000000000000082E-05 ), #88, 'distance_accuracy_value', 'NONE');
#215 = EDGE_CURVE ( 'NONE', #171, #201, #192, .T. ) ;
#216 = CC_DESIGN_PERSON_AND_ORGANIZATION_ASSIGNMENT ( #257, #148, ( #181 ) ) ;
#217 = ORIENTED_EDGE ( 'NONE', *, *, #175, .T. ) ;
#218 = AXIS2_PLACEMENT_3D ( 'NONE', #136, #10, #204 ) ;
#219 = LOCAL_TIME ( 12, 12, 36.00000000000000000, #179 ) ;
#220 = SECURITY_CLASSIFICATION ( '', '', #284 ) ;
#221 = CARTESIAN_POINT ( 'NONE',  ( 0.000000000000000000, 0.000000000000000000, 805.0000000000000000 ) ) ;
#222 = APPROVAL_ROLE ( '' ) ;
#223 = APPLICATION_PROTOCOL_DEFINITION ( 'international standard', 'config_control_design', 1994, #288 ) ;
#224 = ORIENTED_EDGE ( 'NONE', *, *, #292, .T. ) ;
#225 = ORIENTED_EDGE ( 'NONE', *, *, #108, .T. ) ;
#226 = CARTESIAN_POINT ( 'NONE',  ( 3.000000000000000444, 3.673940397442060361E-16, 805.0000000000000000 ) ) ;
#227 = CARTESIAN_POINT ( 'NONE',  ( 0.000000000000000000, 0.000000000000000000, 5.000000000000000000 ) ) ;
#228 = PERSON_AND_ORGANIZATION ( #248, #73 ) ;
#229 = CIRCLE ( 'NONE', #212, 3.000000000000000444 ) ;
#230 = CYLINDRICAL_SURFACE ( 'NONE', #293, 3.000000000000000444 ) ;
#231 = EDGE_LOOP ( 'NONE', ( #170, #57 ) ) ;
#232 = PRODUCT_DEFINITION ( 'NEZNÁMÝ', '', #181, #127 ) ;
#233 = DIRECTION ( 'NONE',  ( 0.000000000000000000, 0.000000000000000000, 1.000000000000000000 ) ) ;
#234 = EDGE_LOOP ( 'NONE', ( #87, #52, #305, #166 ) ) ;
#235 = CARTESIAN_POINT ( 'NONE',  ( 0.000000000000000000, 0.000000000000000000, 0.000000000000000000 ) ) ;
#236 = DATE_AND_TIME ( #306, #197 ) ;
#237 = DIRECTION ( 'NONE',  ( 1.000000000000000000, 0.000000000000000000, 0.000000000000000000 ) ) ;
#238 = AXIS2_PLACEMENT_3D ( 'NONE', #26, #263, #285 ) ;
#239 = APPROVAL ( #137, 'NEURÈENÝ' ) ;
#240 = ADVANCED_FACE ( 'NONE', ( #164 ), #162, .F. ) ;
#241 = DIRECTION ( 'NONE',  ( 0.000000000000000000, 0.000000000000000000, 1.000000000000000000 ) ) ;
#242 = EDGE_LOOP ( 'NONE', ( #194, #138, #217, #193 ) ) ;
#243 = AXIS2_PLACEMENT_3D ( 'NONE', #74, #49, #213 ) ;
#244 = CC_DESIGN_PERSON_AND_ORGANIZATION_ASSIGNMENT ( #249, #109, ( #232 ) ) ;
#245 = ADVANCED_FACE ( 'NONE', ( #36 ), #85, .F. ) ;
#246 = APPROVAL_PERSON_ORGANIZATION ( #251, #239, #255 ) ;
#247 =( NAMED_UNIT ( * ) SI_UNIT ( $, .STERADIAN. ) SOLID_ANGLE_UNIT ( ) );
#248 = PERSON ( 'NEURÈENÝ', 'NEURÈENÝ', 'NEURÈENÝ', ('NEURÈENÝ'), ('NEURÈENÝ'), ('NEURÈENÝ') ) ;
#249 = PERSON_AND_ORGANIZATION ( #248, #73 ) ;
#250 =( NAMED_UNIT ( * ) PLANE_ANGLE_UNIT ( ) SI_UNIT ( $, .RADIAN. ) );
#251 = PERSON_AND_ORGANIZATION ( #248, #73 ) ;
#252 =( GEOMETRIC_REPRESENTATION_CONTEXT ( 3 ) GLOBAL_UNCERTAINTY_ASSIGNED_CONTEXT ( ( #214 ) ) GLOBAL_UNIT_ASSIGNED_CONTEXT ( ( #88, #250, #247 ) ) REPRESENTATION_CONTEXT ( 'NONE', 'WORKASPACE' ) );
#253 = ORIENTED_EDGE ( 'NONE', *, *, #6, .F. ) ;
#254 = DIRECTION ( 'NONE',  ( 1.000000000000000000, 0.000000000000000000, 0.000000000000000000 ) ) ;
#255 = APPROVAL_ROLE ( '' ) ;
#256 = DIRECTION ( 'NONE',  ( -1.000000000000000000, 0.000000000000000000, 0.000000000000000000 ) ) ;
#257 = PERSON_AND_ORGANIZATION ( #248, #73 ) ;
#258 = ADVANCED_FACE ( 'NONE', ( #35 ), #139, .T. ) ;
#259 = CARTESIAN_POINT ( 'NONE',  ( 0.000000000000000000, 0.000000000000000000, 5.199999999999982414 ) ) ;
#260 = CARTESIAN_POINT ( 'NONE',  ( 0.000000000000000000, 0.000000000000000000, 805.0000000000000000 ) ) ;
#261 = CARTESIAN_POINT ( 'NONE',  ( -6.000000000000000888, 0.000000000000000000, 5.000000000000000000 ) ) ;
#262 = CARTESIAN_POINT ( 'NONE',  ( -3.000000000000000444, 0.000000000000000000, 5.199999999999982414 ) ) ;
#263 = DIRECTION ( 'NONE',  ( 1.224646799147353207E-16, 1.000000000000000000, -0.000000000000000000 ) ) ;
#264 = ORIENTED_EDGE ( 'NONE', *, *, #6, .T. ) ;
#265 = EDGE_CURVE ( 'NONE', #286, #171, #81, .T. ) ;
#266 = EDGE_LOOP ( 'NONE', ( #253, #183, #225, #145 ) ) ;
#267 = CC_DESIGN_PERSON_AND_ORGANIZATION_ASSIGNMENT ( #208, #97, ( #220 ) ) ;
#268 = CIRCLE ( 'NONE', #40, 6.000000000000000888 ) ;
#269 = APPROVAL_PERSON_ORGANIZATION ( #276, #116, #222 ) ;
#270 = CARTESIAN_POINT ( 'NONE',  ( 0.000000000000000000, 0.000000000000000000, 0.000000000000000000 ) ) ;
#271 = EDGE_CURVE ( 'NONE', #171, #286, #229, .T. ) ;
#272 = LOCAL_TIME ( 12, 12, 36.00000000000000000, #92 ) ;
#273 = CC_DESIGN_DATE_AND_TIME_ASSIGNMENT ( #72, #184, ( #220 ) ) ;
#274 = CALENDAR_DATE ( 2022, 7, 7 ) ;
#275 = DIRECTION ( 'NONE',  ( -0.000000000000000000, -0.000000000000000000, -1.000000000000000000 ) ) ;
#276 = PERSON_AND_ORGANIZATION ( #248, #73 ) ;
#277 = AXIS2_PLACEMENT_3D ( 'NONE', #177, #12, #198 ) ;
#278 = VERTEX_POINT ( 'NONE', #114 ) ;
#279 = SHAPE_DEFINITION_REPRESENTATION ( #104, #168 ) ;
#280 = ORIENTED_EDGE ( 'NONE', *, *, #271, .T. ) ;
#281 = CALENDAR_DATE ( 2022, 7, 7 ) ;
#282 = CARTESIAN_POINT ( 'NONE',  ( 6.000000000000000888, 7.347880794884120722E-16, 5.000000000000000000 ) ) ;
#283 = EDGE_LOOP ( 'NONE', ( #113, #264 ) ) ;
#284 = SECURITY_CLASSIFICATION_LEVEL ( 'unclassified' ) ;
#285 = DIRECTION ( 'NONE',  ( -1.000000000000000000, 1.224646799147353207E-16, 0.000000000000000000 ) ) ;
#286 = VERTEX_POINT ( 'NONE', #226 ) ;
#287 = CARTESIAN_POINT ( 'NONE',  ( 0.000000000000000000, 0.000000000000000000, 5.199999999999982414 ) ) ;
#288 = APPLICATION_CONTEXT ( 'configuration controlled 3d designs of mechanical parts and assemblies' ) ;
#289 = DIRECTION ( 'NONE',  ( -0.000000000000000000, -0.000000000000000000, -1.000000000000000000 ) ) ;
#290 = AXIS2_PLACEMENT_3D ( 'NONE', #287, #307, #31 ) ;
#291 = ORIENTED_EDGE ( 'NONE', *, *, #265, .T. ) ;
#292 = EDGE_CURVE ( 'NONE', #286, #151, #43, .T. ) ;
#293 = AXIS2_PLACEMENT_3D ( 'NONE', #95, #76, #167 ) ;
#294 = PRODUCT ( 'e6e4', 'e6e4', '', ( #8 ) ) ;
#295 = DIRECTION ( 'NONE',  ( 0.000000000000000000, 0.000000000000000000, 1.000000000000000000 ) ) ;
#296 = CARTESIAN_POINT ( 'NONE',  ( 0.000000000000000000, 0.000000000000000000, 5.000000000000000000 ) ) ;
#297 = DATE_AND_TIME ( #152, #219 ) ;
#298 = ORIENTED_EDGE ( 'NONE', *, *, #105, .F. ) ;
#299 = AXIS2_PLACEMENT_3D ( 'NONE', #44, #50, #119 ) ;
#300 = DIRECTION ( 'NONE',  ( 0.000000000000000000, 0.000000000000000000, 1.000000000000000000 ) ) ;
#301 = CC_DESIGN_APPROVAL ( #239, ( #181 ) ) ;
#302 = CARTESIAN_POINT ( 'NONE',  ( 3.200000000000000622, 0.000000000000000000, 4.999999999999991118 ) ) ;
#303 = CALENDAR_DATE ( 2022, 7, 7 ) ;
#304 = DIRECTION ( 'NONE',  ( 1.000000000000000000, 0.000000000000000000, 0.000000000000000000 ) ) ;
#305 = ORIENTED_EDGE ( 'NONE', *, *, #133, .T. ) ;
#306 = CALENDAR_DATE ( 2022, 7, 7 ) ;
#307 = DIRECTION ( 'NONE',  ( 0.000000000000000000, 0.000000000000000000, 1.000000000000000000 ) ) ;
ENDSEC;
END-ISO-10303-21;
