ISO-10303-21;
HEADER;
FILE_DESCRIPTION (( 'STEP AP203' ),
    '1' );
FILE_NAME ('5b55.STEP',
    '2022-07-07T10:39:16',
    ( '' ),
    ( '' ),
    'SwSTEP 2.0',
    'SolidWorks 2019',
    '' );
FILE_SCHEMA (( 'CONFIG_CONTROL_DESIGN' ));
ENDSEC;

DATA;
#1 = APPROVAL_ROLE ( '' ) ;
#2 = EDGE_CURVE ( 'NONE', #284, #246, #28, .T. ) ;
#3 = CALENDAR_DATE ( 2022, 7, 7 ) ;
#4 = CARTESIAN_POINT ( 'NONE',  ( 0.000000000000000000, 0.000000000000000000, 0.000000000000000000 ) ) ;
#5 = ORIENTED_EDGE ( 'NONE', *, *, #212, .F. ) ;
#6 = AXIS2_PLACEMENT_3D ( 'NONE', #4, #227, #225 ) ;
#7 = ORIENTED_EDGE ( 'NONE', *, *, #23, .F. ) ;
#8 = EDGE_CURVE ( 'NONE', #246, #177, #91, .T. ) ;
#9 = EDGE_LOOP ( 'NONE', ( #105, #10, #203, #31 ) ) ;
#10 = ORIENTED_EDGE ( 'NONE', *, *, #2, .T. ) ;
#11 = AXIS2_PLACEMENT_3D ( 'NONE', #87, #273, #143 ) ;
#12 = FACE_OUTER_BOUND ( 'NONE', #262, .T. ) ;
#13 = DIRECTION ( 'NONE',  ( -0.000000000000000000, -0.000000000000000000, -1.000000000000000000 ) ) ;
#14 = CARTESIAN_POINT ( 'NONE',  ( 0.000000000000000000, 0.000000000000000000, 1.700000000000007061 ) ) ;
#15 = PERSON_AND_ORGANIZATION ( #296, #111 ) ;
#16 = CYLINDRICAL_SURFACE ( 'NONE', #228, 0.6999999999999999556 ) ;
#17 = DIRECTION ( 'NONE',  ( 0.000000000000000000, 0.000000000000000000, 1.000000000000000000 ) ) ;
#18 = CARTESIAN_POINT ( 'NONE',  ( 1.500000000000000222, 1.836970198721030181E-16, 1.500000000000000000 ) ) ;
#19 = PERSON_AND_ORGANIZATION ( #296, #111 ) ;
#20 = LINE ( 'NONE', #205, #238 ) ;
#21 = CARTESIAN_POINT ( 'NONE',  ( 0.000000000000000000, 0.000000000000000000, 1.500000000000000000 ) ) ;
#22 = AXIS2_PLACEMENT_3D ( 'NONE', #59, #80, #210 ) ;
#23 = EDGE_CURVE ( 'NONE', #174, #170, #154, .T. ) ;
#24 = PRODUCT_DEFINITION ( 'NEZNÁMÝ', '', #188, #88 ) ;
#25 = APPROVAL_ROLE ( '' ) ;
#26 = DIRECTION ( 'NONE',  ( 0.000000000000000000, -1.000000000000000000, 0.000000000000000000 ) ) ;
#27 = CIRCLE ( 'NONE', #37, 0.6999999999999999556 ) ;
#28 = LINE ( 'NONE', #129, #275 ) ;
#29 = DIRECTION ( 'NONE',  ( -0.000000000000000000, -0.000000000000000000, -1.000000000000000000 ) ) ;
#30 = ORIENTED_EDGE ( 'NONE', *, *, #144, .F. ) ;
#31 = ORIENTED_EDGE ( 'NONE', *, *, #169, .F. ) ;
#32 = CIRCLE ( 'NONE', #55, 0.6999999999999999556 ) ;
#33 = AXIS2_PLACEMENT_3D ( 'NONE', #14, #109, #140 ) ;
#34 = CARTESIAN_POINT ( 'NONE',  ( 0.9000000000000000222, 0.000000000000000000, 1.500000000000003553 ) ) ;
#35 = APPROVAL ( #171, 'NEURÈENÝ' ) ;
#36 = CARTESIAN_POINT ( 'NONE',  ( 0.000000000000000000, 0.000000000000000000, 161.5000000000000000 ) ) ;
#37 = AXIS2_PLACEMENT_3D ( 'NONE', #234, #40, #108 ) ;
#38 = PLANE ( 'NONE',  #168 ) ;
#39 = DIRECTION ( 'NONE',  ( 1.224646799147353207E-16, 1.000000000000000000, -0.000000000000000000 ) ) ;
#40 = DIRECTION ( 'NONE',  ( 0.000000000000000000, 0.000000000000000000, 1.000000000000000000 ) ) ;
#41 = CC_DESIGN_DATE_AND_TIME_ASSIGNMENT ( #48, #96, ( #24 ) ) ;
#42 = AXIS2_PLACEMENT_3D ( 'NONE', #242, #26, #72 ) ;
#43 = APPROVAL_PERSON_ORGANIZATION ( #208, #156, #85 ) ;
#44 = ADVANCED_FACE ( 'NONE', ( #70 ), #199, .T. ) ;
#45 = COORDINATED_UNIVERSAL_TIME_OFFSET ( 1, 0, .AHEAD. ) ;
#46 = CC_DESIGN_PERSON_AND_ORGANIZATION_ASSIGNMENT ( #19, #219, ( #24 ) ) ;
#47 = EDGE_LOOP ( 'NONE', ( #75, #196, #198, #30 ) ) ;
#48 = DATE_AND_TIME ( #3, #217 ) ;
#49 = DIRECTION ( 'NONE',  ( 0.000000000000000000, 0.000000000000000000, 1.000000000000000000 ) ) ;
#50 = ORIENTED_EDGE ( 'NONE', *, *, #106, .T. ) ;
#51 = CARTESIAN_POINT ( 'NONE',  ( 0.000000000000000000, 0.000000000000000000, 1.500000000000000000 ) ) ;
#52 = EDGE_CURVE ( 'NONE', #284, #71, #184, .T. ) ;
#53 = ORIENTED_EDGE ( 'NONE', *, *, #285, .T. ) ;
#54 = EDGE_LOOP ( 'NONE', ( #7, #173 ) ) ;
#55 = AXIS2_PLACEMENT_3D ( 'NONE', #301, #159, #158 ) ;
#56 = ADVANCED_FACE ( 'NONE', ( #12 ), #126, .T. ) ;
#57 = DIRECTION ( 'NONE',  ( 1.000000000000000000, 0.000000000000000000, 0.000000000000000000 ) ) ;
#58 = PRODUCT_RELATED_PRODUCT_CATEGORY ( 'detail', '', ( #279 ) ) ;
#59 = CARTESIAN_POINT ( 'NONE',  ( 0.000000000000000000, 0.000000000000000000, 161.5000000000000000 ) ) ;
#60 = CARTESIAN_POINT ( 'NONE',  ( 0.000000000000000000, 0.000000000000000000, 0.000000000000000000 ) ) ;
#61 = FACE_OUTER_BOUND ( 'NONE', #9, .T. ) ;
#62 = DATE_AND_TIME ( #141, #165 ) ;
#63 = DIRECTION ( 'NONE',  ( 1.000000000000000000, 0.000000000000000000, 0.000000000000000000 ) ) ;
#64 = CIRCLE ( 'NONE', #166, 0.9000000000000000222 ) ;
#65 = EDGE_CURVE ( 'NONE', #177, #76, #255, .T. ) ;
#66 = COORDINATED_UNIVERSAL_TIME_OFFSET ( 1, 0, .AHEAD. ) ;
#67 = TOROIDAL_SURFACE ( 'NONE', #304, 0.9000000000000000222, 0.2000000000000000111 ) ;
#68 = PRODUCT_DEFINITION_SHAPE ( 'NONE', 'NONE',  #24 ) ;
#69 = ORIENTED_EDGE ( 'NONE', *, *, #2, .F. ) ;
#70 = FACE_OUTER_BOUND ( 'NONE', #292, .T. ) ;
#71 = VERTEX_POINT ( 'NONE', #176 ) ;
#72 = DIRECTION ( 'NONE',  ( 0.000000000000000000, 0.000000000000000000, -1.000000000000000000 ) ) ;
#73 = APPROVAL_PERSON_ORGANIZATION ( #190, #35, #25 ) ;
#74 = ORIENTED_EDGE ( 'NONE', *, *, #121, .F. ) ;
#75 = ORIENTED_EDGE ( 'NONE', *, *, #285, .F. ) ;
#76 = VERTEX_POINT ( 'NONE', #264 ) ;
#77 = EDGE_CURVE ( 'NONE', #178, #155, #204, .T. ) ;
#78 = APPLICATION_CONTEXT ( 'configuration controlled 3d designs of mechanical parts and assemblies' ) ;
#79 = APPROVAL ( #283, 'NEURÈENÝ' ) ;
#80 = DIRECTION ( 'NONE',  ( 0.000000000000000000, 0.000000000000000000, 1.000000000000000000 ) ) ;
#81 = CC_DESIGN_APPROVAL ( #156, ( #24 ) ) ;
#82 = DIRECTION ( 'NONE',  ( 0.000000000000000000, 0.000000000000000000, 1.000000000000000000 ) ) ;
#83 = APPROVAL_STATUS ( 'not_yet_approved' ) ;
#84 = DIRECTION ( 'NONE',  ( 0.000000000000000000, 0.000000000000000000, 1.000000000000000000 ) ) ;
#85 = APPROVAL_ROLE ( '' ) ;
#86 = FACE_OUTER_BOUND ( 'NONE', #259, .T. ) ;
#87 = CARTESIAN_POINT ( 'NONE',  ( 0.000000000000000000, 0.000000000000000000, 0.000000000000000000 ) ) ;
#88 = DESIGN_CONTEXT ( 'detailed design', #134, 'design' ) ;
#89 = APPROVAL_PERSON_ORGANIZATION ( #307, #79, #1 ) ;
#90 = DIRECTION ( 'NONE',  ( 1.000000000000000000, 0.000000000000000000, 0.000000000000000000 ) ) ;
#91 = CIRCLE ( 'NONE', #42, 0.2000000000000000944 ) ;
#92 = ADVANCED_FACE ( 'NONE', ( #115 ), #229, .F. ) ;
#93 = EDGE_CURVE ( 'NONE', #71, #284, #164, .T. ) ;
#94 = AXIS2_PLACEMENT_3D ( 'NONE', #231, #39, #116 ) ;
#95 = COORDINATED_UNIVERSAL_TIME_OFFSET ( 1, 0, .AHEAD. ) ;
#96 = DATE_TIME_ROLE ( 'creation_date' ) ;
#97 = ORIENTED_EDGE ( 'NONE', *, *, #65, .T. ) ;
#98 = AXIS2_PLACEMENT_3D ( 'NONE', #21, #189, #119 ) ;
#99 = CALENDAR_DATE ( 2022, 7, 7 ) ;
#100 = DIRECTION ( 'NONE',  ( -0.000000000000000000, -0.000000000000000000, -1.000000000000000000 ) ) ;
#101 = ORIENTED_EDGE ( 'NONE', *, *, #93, .T. ) ;
#102 = ORIENTED_EDGE ( 'NONE', *, *, #52, .T. ) ;
#103 = CARTESIAN_POINT ( 'NONE',  ( 0.000000000000000000, 0.000000000000000000, 161.5000000000000000 ) ) ;
#104 = CC_DESIGN_SECURITY_CLASSIFICATION ( #152, ( #188 ) ) ;
#105 = ORIENTED_EDGE ( 'NONE', *, *, #52, .F. ) ;
#106 = EDGE_CURVE ( 'NONE', #76, #177, #64, .T. ) ;
#107 = ADVANCED_FACE ( 'NONE', ( #267 ), #161, .T. ) ;
#108 = DIRECTION ( 'NONE',  ( 1.000000000000000000, 0.000000000000000000, 0.000000000000000000 ) ) ;
#109 = DIRECTION ( 'NONE',  ( 0.000000000000000000, 0.000000000000000000, 1.000000000000000000 ) ) ;
#110 = PERSON_AND_ORGANIZATION_ROLE ( 'design_owner' ) ;
#111 = ORGANIZATION ( 'NEURÈENÝ', 'NEURÈENÝ', '' ) ;
#112 = CIRCLE ( 'NONE', #94, 0.2000000000000000944 ) ;
#113 = DIRECTION ( 'NONE',  ( 1.000000000000000000, 0.000000000000000000, 0.000000000000000000 ) ) ;
#114 =( NAMED_UNIT ( * ) SI_UNIT ( $, .STERADIAN. ) SOLID_ANGLE_UNIT ( ) );
#115 = FACE_OUTER_BOUND ( 'NONE', #54, .T. ) ;
#116 = DIRECTION ( 'NONE',  ( -1.000000000000000000, 1.224646799147353207E-16, 0.000000000000000000 ) ) ;
#117 = CC_DESIGN_PERSON_AND_ORGANIZATION_ASSIGNMENT ( #260, #258, ( #152 ) ) ;
#118 = FACE_BOUND ( 'NONE', #151, .T. ) ;
#119 = DIRECTION ( 'NONE',  ( -1.000000000000000000, 0.000000000000000000, 0.000000000000000000 ) ) ;
#120 = LOCAL_TIME ( 12, 39, 16.00000000000000000, #45 ) ;
#121 = EDGE_CURVE ( 'NONE', #155, #170, #236, .T. ) ;
#122 = AXIS2_PLACEMENT_3D ( 'NONE', #142, #82, #57 ) ;
#123 = ADVANCED_FACE ( 'NONE', ( #118, #86 ), #38, .T. ) ;
#124 = SHAPE_DEFINITION_REPRESENTATION ( #68, #232 ) ;
#125 = ORIENTED_EDGE ( 'NONE', *, *, #169, .T. ) ;
#126 = CYLINDRICAL_SURFACE ( 'NONE', #197, 0.6999999999999999556 ) ;
#127 = EDGE_LOOP ( 'NONE', ( #5, #288, #194, #202 ) ) ;
#128 = AXIS2_PLACEMENT_3D ( 'NONE', #103, #49, #243 ) ;
#129 = CARTESIAN_POINT ( 'NONE',  ( 0.6999999999999999556, 8.572527594031471957E-17, 161.5000000000000000 ) ) ;
#130 = EDGE_CURVE ( 'NONE', #149, #246, #32, .T. ) ;
#131 = ORIENTED_EDGE ( 'NONE', *, *, #77, .T. ) ;
#132 = AXIS2_PLACEMENT_3D ( 'NONE', #252, #160, #187 ) ;
#133 = CARTESIAN_POINT ( 'NONE',  ( 0.000000000000000000, 0.000000000000000000, 1.500000000000000000 ) ) ;
#134 = APPLICATION_CONTEXT ( 'configuration controlled 3d designs of mechanical parts and assemblies' ) ;
#135 = ORIENTED_EDGE ( 'NONE', *, *, #212, .T. ) ;
#136 = CARTESIAN_POINT ( 'NONE',  ( -1.500000000000000222, 0.000000000000000000, 1.500000000000000000 ) ) ;
#137 = DIRECTION ( 'NONE',  ( -1.000000000000000000, 0.000000000000000000, 0.000000000000000000 ) ) ;
#138 = ADVANCED_FACE ( 'NONE', ( #182 ), #306, .F. ) ;
#139 = CC_DESIGN_PERSON_AND_ORGANIZATION_ASSIGNMENT ( #240, #167, ( #188 ) ) ;
#140 = DIRECTION ( 'NONE',  ( 1.000000000000000000, 0.000000000000000000, 0.000000000000000000 ) ) ;
#141 = CALENDAR_DATE ( 2022, 7, 7 ) ;
#142 = CARTESIAN_POINT ( 'NONE',  ( 0.000000000000000000, 0.000000000000000000, 1.500000000000000000 ) ) ;
#143 = DIRECTION ( 'NONE',  ( 1.000000000000000000, 0.000000000000000000, 0.000000000000000000 ) ) ;
#144 = EDGE_CURVE ( 'NONE', #178, #174, #186, .T. ) ;
#145 = CALENDAR_DATE ( 2022, 7, 7 ) ;
#146 = ADVANCED_FACE ( 'NONE', ( #61 ), #16, .T. ) ;
#147 = DATE_AND_TIME ( #145, #120 ) ;
#148 = AXIS2_PLACEMENT_3D ( 'NONE', #51, #29, #201 ) ;
#149 = VERTEX_POINT ( 'NONE', #297 ) ;
#150 = EDGE_CURVE ( 'NONE', #246, #149, #27, .T. ) ;
#151 = EDGE_LOOP ( 'NONE', ( #97, #50 ) ) ;
#152 = SECURITY_CLASSIFICATION ( '', '', #257 ) ;
#153 = ORIENTED_EDGE ( 'NONE', *, *, #8, .F. ) ;
#154 = CIRCLE ( 'NONE', #6, 1.500000000000000222 ) ;
#155 = VERTEX_POINT ( 'NONE', #18 ) ;
#156 = APPROVAL ( #83, 'NEURÈENÝ' ) ;
#157 = LOCAL_TIME ( 12, 39, 16.00000000000000000, #66 ) ;
#158 = DIRECTION ( 'NONE',  ( 1.000000000000000000, 0.000000000000000000, 0.000000000000000000 ) ) ;
#159 = DIRECTION ( 'NONE',  ( 0.000000000000000000, 0.000000000000000000, 1.000000000000000000 ) ) ;
#160 = DIRECTION ( 'NONE',  ( 0.000000000000000000, 0.000000000000000000, 1.000000000000000000 ) ) ;
#161 = CYLINDRICAL_SURFACE ( 'NONE', #193, 1.500000000000000222 ) ;
#162 = DIRECTION ( 'NONE',  ( -0.000000000000000000, -0.000000000000000000, -1.000000000000000000 ) ) ;
#163 = CARTESIAN_POINT ( 'NONE',  ( 0.000000000000000000, 0.000000000000000000, 1.700000000000007061 ) ) ;
#164 = CIRCLE ( 'NONE', #22, 0.6999999999999999556 ) ;
#165 = LOCAL_TIME ( 12, 39, 16.00000000000000000, #185 ) ;
#166 = AXIS2_PLACEMENT_3D ( 'NONE', #249, #268, #113 ) ;
#167 = PERSON_AND_ORGANIZATION_ROLE ( 'creator' ) ;
#168 = AXIS2_PLACEMENT_3D ( 'NONE', #133, #230, #233 ) ;
#169 = EDGE_CURVE ( 'NONE', #71, #149, #20, .T. ) ;
#170 = VERTEX_POINT ( 'NONE', #179 ) ;
#171 = APPROVAL_STATUS ( 'not_yet_approved' ) ;
#172 = CARTESIAN_POINT ( 'NONE',  ( 0.000000000000000000, 0.000000000000000000, 161.5000000000000000 ) ) ;
#173 = ORIENTED_EDGE ( 'NONE', *, *, #181, .F. ) ;
#174 = VERTEX_POINT ( 'NONE', #248 ) ;
#175 = CIRCLE ( 'NONE', #11, 1.500000000000000222 ) ;
#176 = CARTESIAN_POINT ( 'NONE',  ( -0.6999999999999999556, 0.000000000000000000, 161.5000000000000000 ) ) ;
#177 = VERTEX_POINT ( 'NONE', #34 ) ;
#178 = VERTEX_POINT ( 'NONE', #136 ) ;
#179 = CARTESIAN_POINT ( 'NONE',  ( 1.500000000000000222, 1.836970198721030181E-16, 0.000000000000000000 ) ) ;
#180 =( NAMED_UNIT ( * ) PLANE_ANGLE_UNIT ( ) SI_UNIT ( $, .RADIAN. ) );
#181 = EDGE_CURVE ( 'NONE', #170, #174, #175, .T. ) ;
#182 = FACE_OUTER_BOUND ( 'NONE', #127, .T. ) ;
#183 = FACE_OUTER_BOUND ( 'NONE', #286, .T. ) ;
#184 = CIRCLE ( 'NONE', #128, 0.6999999999999999556 ) ;
#185 = COORDINATED_UNIVERSAL_TIME_OFFSET ( 1, 0, .AHEAD. ) ;
#186 = LINE ( 'NONE', #270, #272 ) ;
#187 = DIRECTION ( 'NONE',  ( 1.000000000000000000, 0.000000000000000000, 0.000000000000000000 ) ) ;
#188 = PRODUCT_DEFINITION_FORMATION_WITH_SPECIFIED_SOURCE ( 'LIBOVOLNÝ', '', #279, .NOT_KNOWN. ) ;
#189 = DIRECTION ( 'NONE',  ( -0.000000000000000000, -0.000000000000000000, -1.000000000000000000 ) ) ;
#190 = PERSON_AND_ORGANIZATION ( #296, #111 ) ;
#191 = CALENDAR_DATE ( 2022, 7, 7 ) ;
#192 = DATE_AND_TIME ( #99, #157 ) ;
#193 = AXIS2_PLACEMENT_3D ( 'NONE', #251, #213, #253 ) ;
#194 = ORIENTED_EDGE ( 'NONE', *, *, #8, .T. ) ;
#195 = PERSON_AND_ORGANIZATION ( #296, #111 ) ;
#196 = ORIENTED_EDGE ( 'NONE', *, *, #121, .T. ) ;
#197 = AXIS2_PLACEMENT_3D ( 'NONE', #223, #244, #287 ) ;
#198 = ORIENTED_EDGE ( 'NONE', *, *, #181, .T. ) ;
#199 = PLANE ( 'NONE',  #220 ) ;
#200 = EDGE_LOOP ( 'NONE', ( #74, #226, #290, #224 ) ) ;
#201 = DIRECTION ( 'NONE',  ( 1.000000000000000000, 0.000000000000000000, 0.000000000000000000 ) ) ;
#202 = ORIENTED_EDGE ( 'NONE', *, *, #106, .F. ) ;
#203 = ORIENTED_EDGE ( 'NONE', *, *, #150, .T. ) ;
#204 = CIRCLE ( 'NONE', #122, 1.500000000000000222 ) ;
#205 = CARTESIAN_POINT ( 'NONE',  ( -0.6999999999999999556, 0.000000000000000000, 161.5000000000000000 ) ) ;
#206 = ADVANCED_FACE ( 'NONE', ( #183 ), #67, .F. ) ;
#207 = DIRECTION ( 'NONE',  ( 1.000000000000000000, 0.000000000000000000, -0.000000000000000000 ) ) ;
#208 = PERSON_AND_ORGANIZATION ( #296, #111 ) ;
#209 = LOCAL_TIME ( 12, 39, 16.00000000000000000, #95 ) ;
#210 = DIRECTION ( 'NONE',  ( 1.000000000000000000, 0.000000000000000000, 0.000000000000000000 ) ) ;
#211 = MECHANICAL_CONTEXT ( 'NONE', #78, 'mechanical' ) ;
#212 = EDGE_CURVE ( 'NONE', #149, #76, #112, .T. ) ;
#213 = DIRECTION ( 'NONE',  ( -0.000000000000000000, -0.000000000000000000, -1.000000000000000000 ) ) ;
#214 = APPLICATION_PROTOCOL_DEFINITION ( 'international standard', 'config_control_design', 1994, #78 ) ;
#215 = ADVANCED_FACE ( 'NONE', ( #305 ), #302, .T. ) ;
#216 = UNCERTAINTY_MEASURE_WITH_UNIT (LENGTH_MEASURE( 1.000000000000000082E-05 ), #250, 'distance_accuracy_value', 'NONE');
#217 = LOCAL_TIME ( 12, 39, 16.00000000000000000, #218 ) ;
#218 = COORDINATED_UNIVERSAL_TIME_OFFSET ( 1, 0, .AHEAD. ) ;
#219 = PERSON_AND_ORGANIZATION_ROLE ( 'creator' ) ;
#220 = AXIS2_PLACEMENT_3D ( 'NONE', #172, #261, #263 ) ;
#221 = AXIS2_PLACEMENT_3D ( 'NONE', #295, #298, #63 ) ;
#222 = ORIENTED_EDGE ( 'NONE', *, *, #130, .F. ) ;
#223 = CARTESIAN_POINT ( 'NONE',  ( 0.000000000000000000, 0.000000000000000000, 161.5000000000000000 ) ) ;
#224 = ORIENTED_EDGE ( 'NONE', *, *, #23, .T. ) ;
#225 = DIRECTION ( 'NONE',  ( 1.000000000000000000, 0.000000000000000000, 0.000000000000000000 ) ) ;
#226 = ORIENTED_EDGE ( 'NONE', *, *, #77, .F. ) ;
#227 = DIRECTION ( 'NONE',  ( 0.000000000000000000, 0.000000000000000000, 1.000000000000000000 ) ) ;
#228 = AXIS2_PLACEMENT_3D ( 'NONE', #36, #13, #137 ) ;
#229 = PLANE ( 'NONE',  #300 ) ;
#230 = DIRECTION ( 'NONE',  ( 0.000000000000000000, 0.000000000000000000, 1.000000000000000000 ) ) ;
#231 = CARTESIAN_POINT ( 'NONE',  ( -0.9000000000000000222, 1.102182119232617788E-16, 1.700000000000007061 ) ) ;
#232 = ADVANCED_BREP_SHAPE_REPRESENTATION ( '5b55', ( #237, #132 ), #276 ) ;
#233 = DIRECTION ( 'NONE',  ( 1.000000000000000000, 0.000000000000000000, -0.000000000000000000 ) ) ;
#234 = CARTESIAN_POINT ( 'NONE',  ( 0.000000000000000000, 0.000000000000000000, 1.700000000000007061 ) ) ;
#235 = APPROVAL_DATE_TIME ( #62, #156 ) ;
#236 = LINE ( 'NONE', #294, #303 ) ;
#237 = MANIFOLD_SOLID_BREP ( 'Zaoblit1', #291 ) ;
#238 = VECTOR ( 'NONE', #293, 1000.000000000000000 ) ;
#239 = APPROVAL_DATE_TIME ( #281, #79 ) ;
#240 = PERSON_AND_ORGANIZATION ( #296, #111 ) ;
#241 = DATE_TIME_ROLE ( 'classification_date' ) ;
#242 = CARTESIAN_POINT ( 'NONE',  ( 0.9000000000000000222, 0.000000000000000000, 1.700000000000007061 ) ) ;
#243 = DIRECTION ( 'NONE',  ( 1.000000000000000000, 0.000000000000000000, 0.000000000000000000 ) ) ;
#244 = DIRECTION ( 'NONE',  ( -0.000000000000000000, -0.000000000000000000, -1.000000000000000000 ) ) ;
#245 = ORIENTED_EDGE ( 'NONE', *, *, #65, .F. ) ;
#246 = VERTEX_POINT ( 'NONE', #269 ) ;
#247 = CC_DESIGN_DATE_AND_TIME_ASSIGNMENT ( #147, #241, ( #152 ) ) ;
#248 = CARTESIAN_POINT ( 'NONE',  ( -1.500000000000000222, 0.000000000000000000, 0.000000000000000000 ) ) ;
#249 = CARTESIAN_POINT ( 'NONE',  ( 0.000000000000000000, 0.000000000000000000, 1.500000000000000000 ) ) ;
#250 =( LENGTH_UNIT ( ) NAMED_UNIT ( * ) SI_UNIT ( .MILLI., .METRE. ) );
#251 = CARTESIAN_POINT ( 'NONE',  ( 0.000000000000000000, 0.000000000000000000, 1.500000000000000000 ) ) ;
#252 = CARTESIAN_POINT ( 'NONE',  ( 0.000000000000000000, 0.000000000000000000, 0.000000000000000000 ) ) ;
#253 = DIRECTION ( 'NONE',  ( -1.000000000000000000, 0.000000000000000000, 0.000000000000000000 ) ) ;
#254 = APPLICATION_PROTOCOL_DEFINITION ( 'international standard', 'config_control_design', 1994, #134 ) ;
#255 = CIRCLE ( 'NONE', #148, 0.9000000000000000222 ) ;
#256 = CC_DESIGN_APPROVAL ( #79, ( #152 ) ) ;
#257 = SECURITY_CLASSIFICATION_LEVEL ( 'unclassified' ) ;
#258 = PERSON_AND_ORGANIZATION_ROLE ( 'classification_officer' ) ;
#259 = EDGE_LOOP ( 'NONE', ( #131, #53 ) ) ;
#260 = PERSON_AND_ORGANIZATION ( #296, #111 ) ;
#261 = DIRECTION ( 'NONE',  ( 0.000000000000000000, 0.000000000000000000, 1.000000000000000000 ) ) ;
#262 = EDGE_LOOP ( 'NONE', ( #69, #282, #125, #265 ) ) ;
#263 = DIRECTION ( 'NONE',  ( 1.000000000000000000, 0.000000000000000000, -0.000000000000000000 ) ) ;
#264 = CARTESIAN_POINT ( 'NONE',  ( -0.9000000000000000222, 1.102182119232617788E-16, 1.500000000000003553 ) ) ;
#265 = ORIENTED_EDGE ( 'NONE', *, *, #130, .T. ) ;
#266 = CC_DESIGN_APPROVAL ( #35, ( #188 ) ) ;
#267 = FACE_OUTER_BOUND ( 'NONE', #47, .T. ) ;
#268 = DIRECTION ( 'NONE',  ( -0.000000000000000000, -0.000000000000000000, -1.000000000000000000 ) ) ;
#269 = CARTESIAN_POINT ( 'NONE',  ( 0.6999999999999999556, 8.572527594031471957E-17, 1.700000000000007061 ) ) ;
#270 = CARTESIAN_POINT ( 'NONE',  ( -1.500000000000000222, 0.000000000000000000, 1.500000000000000000 ) ) ;
#271 = DIRECTION ( 'NONE',  ( -0.000000000000000000, -0.000000000000000000, -1.000000000000000000 ) ) ;
#272 = VECTOR ( 'NONE', #271, 1000.000000000000000 ) ;
#273 = DIRECTION ( 'NONE',  ( 0.000000000000000000, 0.000000000000000000, 1.000000000000000000 ) ) ;
#274 = CARTESIAN_POINT ( 'NONE',  ( 0.6999999999999999556, 8.572527594031471957E-17, 161.5000000000000000 ) ) ;
#275 = VECTOR ( 'NONE', #100, 1000.000000000000000 ) ;
#276 =( GEOMETRIC_REPRESENTATION_CONTEXT ( 3 ) GLOBAL_UNCERTAINTY_ASSIGNED_CONTEXT ( ( #216 ) ) GLOBAL_UNIT_ASSIGNED_CONTEXT ( ( #250, #180, #114 ) ) REPRESENTATION_CONTEXT ( 'NONE', 'WORKASPACE' ) );
#277 = CIRCLE ( 'NONE', #221, 1.500000000000000222 ) ;
#278 = PERSON_AND_ORGANIZATION_ROLE ( 'design_supplier' ) ;
#279 = PRODUCT ( '5b55', '5b55', '', ( #211 ) ) ;
#280 = APPROVAL_DATE_TIME ( #192, #35 ) ;
#281 = DATE_AND_TIME ( #191, #209 ) ;
#282 = ORIENTED_EDGE ( 'NONE', *, *, #93, .F. ) ;
#283 = APPROVAL_STATUS ( 'not_yet_approved' ) ;
#284 = VERTEX_POINT ( 'NONE', #274 ) ;
#285 = EDGE_CURVE ( 'NONE', #155, #178, #277, .T. ) ;
#286 = EDGE_LOOP ( 'NONE', ( #222, #135, #245, #153 ) ) ;
#287 = DIRECTION ( 'NONE',  ( -1.000000000000000000, 0.000000000000000000, 0.000000000000000000 ) ) ;
#288 = ORIENTED_EDGE ( 'NONE', *, *, #150, .F. ) ;
#289 = CC_DESIGN_PERSON_AND_ORGANIZATION_ASSIGNMENT ( #195, #278, ( #188 ) ) ;
#290 = ORIENTED_EDGE ( 'NONE', *, *, #144, .T. ) ;
#291 = CLOSED_SHELL ( 'NONE', ( #206, #146, #107, #215, #123, #92, #56, #44, #138 ) ) ;
#292 = EDGE_LOOP ( 'NONE', ( #101, #102 ) ) ;
#293 = DIRECTION ( 'NONE',  ( -0.000000000000000000, -0.000000000000000000, -1.000000000000000000 ) ) ;
#294 = CARTESIAN_POINT ( 'NONE',  ( 1.500000000000000222, 1.836970198721030181E-16, 1.500000000000000000 ) ) ;
#295 = CARTESIAN_POINT ( 'NONE',  ( 0.000000000000000000, 0.000000000000000000, 1.500000000000000000 ) ) ;
#296 = PERSON ( 'NEURÈENÝ', 'NEURÈENÝ', 'NEURÈENÝ', ('NEURÈENÝ'), ('NEURÈENÝ'), ('NEURÈENÝ') ) ;
#297 = CARTESIAN_POINT ( 'NONE',  ( -0.6999999999999999556, 0.000000000000000000, 1.700000000000007061 ) ) ;
#298 = DIRECTION ( 'NONE',  ( 0.000000000000000000, 0.000000000000000000, 1.000000000000000000 ) ) ;
#299 = CC_DESIGN_PERSON_AND_ORGANIZATION_ASSIGNMENT ( #15, #110, ( #279 ) ) ;
#300 = AXIS2_PLACEMENT_3D ( 'NONE', #60, #84, #207 ) ;
#301 = CARTESIAN_POINT ( 'NONE',  ( 0.000000000000000000, 0.000000000000000000, 1.700000000000007061 ) ) ;
#302 = CYLINDRICAL_SURFACE ( 'NONE', #98, 1.500000000000000222 ) ;
#303 = VECTOR ( 'NONE', #162, 1000.000000000000000 ) ;
#304 = AXIS2_PLACEMENT_3D ( 'NONE', #163, #17, #90 ) ;
#305 = FACE_OUTER_BOUND ( 'NONE', #200, .T. ) ;
#306 = TOROIDAL_SURFACE ( 'NONE', #33, 0.9000000000000000222, 0.2000000000000000111 ) ;
#307 = PERSON_AND_ORGANIZATION ( #296, #111 ) ;
ENDSEC;
END-ISO-10303-21;
