ISO-10303-21;
HEADER;
FILE_DESCRIPTION (( 'STEP AP203' ),
    '1' );
FILE_NAME ('743f.STEP',
    '2022-07-07T10:00:14',
    ( '' ),
    ( '' ),
    'SwSTEP 2.0',
    'SolidWorks 2019',
    '' );
FILE_SCHEMA (( 'CONFIG_CONTROL_DESIGN' ));
ENDSEC;

DATA;
#1 = VECTOR ( 'NONE', #220, 1000.000000000000000 ) ;
#2 = LOCAL_TIME ( 12, 0, 14.00000000000000000, #47 ) ;
#3 = CARTESIAN_POINT ( 'NONE',  ( 4.299999999999998934, 0.000000000000000000, 5.199999999999982414 ) ) ;
#4 = ADVANCED_FACE ( 'NONE', ( #33 ), #211, .F. ) ;
#5 = DATE_AND_TIME ( #75, #150 ) ;
#6 = DIRECTION ( 'NONE',  ( 0.000000000000000000, 0.000000000000000000, 1.000000000000000000 ) ) ;
#7 = FACE_OUTER_BOUND ( 'NONE', #126, .T. ) ;
#8 = ORIENTED_EDGE ( 'NONE', *, *, #10, .T. ) ;
#9 = CARTESIAN_POINT ( 'NONE',  ( 0.000000000000000000, 0.000000000000000000, 805.0000000000000000 ) ) ;
#10 = EDGE_CURVE ( 'NONE', #157, #120, #39, .T. ) ;
#11 = DESIGN_CONTEXT ( 'detailed design', #124, 'design' ) ;
#12 = CARTESIAN_POINT ( 'NONE',  ( -4.299999999999998934, 5.265981236333617484E-16, 4.999999999999991118 ) ) ;
#13 = CARTESIAN_POINT ( 'NONE',  ( 0.000000000000000000, 0.000000000000000000, 805.0000000000000000 ) ) ;
#14 = CIRCLE ( 'NONE', #199, 4.299999999999998934 ) ;
#15 = AXIS2_PLACEMENT_3D ( 'NONE', #179, #69, #275 ) ;
#16 = CARTESIAN_POINT ( 'NONE',  ( -4.299999999999998934, 5.265981236333617484E-16, 5.199999999999982414 ) ) ;
#17 = DIRECTION ( 'NONE',  ( 1.000000000000000000, 0.000000000000000000, 0.000000000000000000 ) ) ;
#18 = APPLICATION_PROTOCOL_DEFINITION ( 'international standard', 'config_control_design', 1994, #124 ) ;
#19 = CALENDAR_DATE ( 2022, 7, 7 ) ;
#20 = ORIENTED_EDGE ( 'NONE', *, *, #195, .T. ) ;
#21 = DATE_AND_TIME ( #19, #54 ) ;
#22 = ORIENTED_EDGE ( 'NONE', *, *, #88, .F. ) ;
#23 = AXIS2_PLACEMENT_3D ( 'NONE', #79, #6, #286 ) ;
#24 = DATE_TIME_ROLE ( 'classification_date' ) ;
#25 = ORIENTED_EDGE ( 'NONE', *, *, #191, .F. ) ;
#26 = CC_DESIGN_SECURITY_CLASSIFICATION ( #258, ( #252 ) ) ;
#27 = CC_DESIGN_PERSON_AND_ORGANIZATION_ASSIGNMENT ( #182, #274, ( #252 ) ) ;
#28 = ORIENTED_EDGE ( 'NONE', *, *, #288, .T. ) ;
#29 = VERTEX_POINT ( 'NONE', #148 ) ;
#30 = SHAPE_DEFINITION_REPRESENTATION ( #163, #43 ) ;
#31 = CARTESIAN_POINT ( 'NONE',  ( 0.000000000000000000, 0.000000000000000000, 5.000000000000000000 ) ) ;
#32 = ORIENTED_EDGE ( 'NONE', *, *, #201, .F. ) ;
#33 = FACE_OUTER_BOUND ( 'NONE', #122, .T. ) ;
#34 = DIRECTION ( 'NONE',  ( 0.000000000000000000, -1.000000000000000000, 0.000000000000000000 ) ) ;
#35 = CARTESIAN_POINT ( 'NONE',  ( 4.099999999999999645, 5.021051876504147385E-16, 805.0000000000000000 ) ) ;
#36 = ADVANCED_FACE ( 'NONE', ( #104 ), #237, .T. ) ;
#37 = MANIFOLD_SOLID_BREP ( 'Zaoblit1', #238 ) ;
#38 = DIRECTION ( 'NONE',  ( 0.000000000000000000, 0.000000000000000000, 1.000000000000000000 ) ) ;
#39 = CIRCLE ( 'NONE', #249, 0.1999999999999996503 ) ;
#40 = ADVANCED_FACE ( 'NONE', ( #123, #7 ), #76, .T. ) ;
#41 = CARTESIAN_POINT ( 'NONE',  ( 0.000000000000000000, 0.000000000000000000, 5.000000000000000000 ) ) ;
#42 = CC_DESIGN_APPROVAL ( #78, ( #252 ) ) ;
#43 = ADVANCED_BREP_SHAPE_REPRESENTATION ( '743f', ( #37, #15 ), #291 ) ;
#44 = DIRECTION ( 'NONE',  ( 1.000000000000000000, 0.000000000000000000, 0.000000000000000000 ) ) ;
#45 = DATE_AND_TIME ( #253, #2 ) ;
#46 = VERTEX_POINT ( 'NONE', #185 ) ;
#47 = COORDINATED_UNIVERSAL_TIME_OFFSET ( 1, 0, .AHEAD. ) ;
#48 = VERTEX_POINT ( 'NONE', #82 ) ;
#49 = CALENDAR_DATE ( 2022, 7, 7 ) ;
#50 = COORDINATED_UNIVERSAL_TIME_OFFSET ( 1, 0, .AHEAD. ) ;
#51 = CC_DESIGN_PERSON_AND_ORGANIZATION_ASSIGNMENT ( #302, #97, ( #252 ) ) ;
#52 = APPLICATION_CONTEXT ( 'configuration controlled 3d designs of mechanical parts and assemblies' ) ;
#53 = AXIS2_PLACEMENT_3D ( 'NONE', #192, #134, #112 ) ;
#54 = LOCAL_TIME ( 12, 0, 14.00000000000000000, #221 ) ;
#55 = DIRECTION ( 'NONE',  ( 1.000000000000000000, 0.000000000000000000, -0.000000000000000000 ) ) ;
#56 = ORIENTED_EDGE ( 'NONE', *, *, #117, .F. ) ;
#57 = DIRECTION ( 'NONE',  ( -0.000000000000000000, -0.000000000000000000, -1.000000000000000000 ) ) ;
#58 = AXIS2_PLACEMENT_3D ( 'NONE', #294, #87, #268 ) ;
#59 = ORIENTED_EDGE ( 'NONE', *, *, #254, .T. ) ;
#60 = ORIENTED_EDGE ( 'NONE', *, *, #155, .T. ) ;
#61 = AXIS2_PLACEMENT_3D ( 'NONE', #84, #284, #186 ) ;
#62 = DIRECTION ( 'NONE',  ( -0.000000000000000000, -0.000000000000000000, -1.000000000000000000 ) ) ;
#63 = CARTESIAN_POINT ( 'NONE',  ( 0.000000000000000000, 0.000000000000000000, 5.000000000000000000 ) ) ;
#64 = CARTESIAN_POINT ( 'NONE',  ( -7.000000000000000000, 0.000000000000000000, 0.000000000000000000 ) ) ;
#65 = DIRECTION ( 'NONE',  ( -1.000000000000000000, 0.000000000000000000, 0.000000000000000000 ) ) ;
#66 = CIRCLE ( 'NONE', #270, 7.000000000000000000 ) ;
#67 = CARTESIAN_POINT ( 'NONE',  ( 7.000000000000000000, 8.572527594031473190E-16, 5.000000000000000000 ) ) ;
#68 = APPROVAL_PERSON_ORGANIZATION ( #183, #164, #204 ) ;
#69 = DIRECTION ( 'NONE',  ( 0.000000000000000000, 0.000000000000000000, 1.000000000000000000 ) ) ;
#70 = ORIENTED_EDGE ( 'NONE', *, *, #225, .F. ) ;
#71 = ADVANCED_FACE ( 'NONE', ( #207 ), #187, .T. ) ;
#72 = ORIENTED_EDGE ( 'NONE', *, *, #231, .F. ) ;
#73 = SECURITY_CLASSIFICATION_LEVEL ( 'unclassified' ) ;
#74 = CC_DESIGN_PERSON_AND_ORGANIZATION_ASSIGNMENT ( #162, #255, ( #258 ) ) ;
#75 = CALENDAR_DATE ( 2022, 7, 7 ) ;
#76 = PLANE ( 'NONE',  #169 ) ;
#77 = AXIS2_PLACEMENT_3D ( 'NONE', #41, #266, #90 ) ;
#78 = APPROVAL ( #278, 'NEURÈENÝ' ) ;
#79 = CARTESIAN_POINT ( 'NONE',  ( 0.000000000000000000, 0.000000000000000000, 5.199999999999982414 ) ) ;
#80 = CARTESIAN_POINT ( 'NONE',  ( 0.000000000000000000, 0.000000000000000000, 5.000000000000000000 ) ) ;
#81 = AXIS2_PLACEMENT_3D ( 'NONE', #210, #234, #208 ) ;
#82 = CARTESIAN_POINT ( 'NONE',  ( 4.099999999999999645, 5.021051876504147385E-16, 805.0000000000000000 ) ) ;
#83 = AXIS2_PLACEMENT_3D ( 'NONE', #154, #245, #216 ) ;
#84 = CARTESIAN_POINT ( 'NONE',  ( 0.000000000000000000, 0.000000000000000000, 5.199999999999982414 ) ) ;
#85 = ADVANCED_FACE ( 'NONE', ( #230 ), #121, .T. ) ;
#86 = CARTESIAN_POINT ( 'NONE',  ( 4.099999999999999645, 5.021051876504147385E-16, 5.199999999999982414 ) ) ;
#87 = DIRECTION ( 'NONE',  ( 0.000000000000000000, 0.000000000000000000, 1.000000000000000000 ) ) ;
#88 = EDGE_CURVE ( 'NONE', #46, #157, #153, .T. ) ;
#89 = DIRECTION ( 'NONE',  ( -0.000000000000000000, -0.000000000000000000, -1.000000000000000000 ) ) ;
#90 = DIRECTION ( 'NONE',  ( 1.000000000000000000, 0.000000000000000000, 0.000000000000000000 ) ) ;
#91 = DIRECTION ( 'NONE',  ( 0.000000000000000000, 0.000000000000000000, 1.000000000000000000 ) ) ;
#92 = CIRCLE ( 'NONE', #125, 4.099999999999999645 ) ;
#93 = APPROVAL_DATE_TIME ( #200, #236 ) ;
#94 = CC_DESIGN_DATE_AND_TIME_ASSIGNMENT ( #45, #135, ( #129 ) ) ;
#95 = ORIENTED_EDGE ( 'NONE', *, *, #306, .F. ) ;
#96 = PRODUCT ( '743f', '743f', '', ( #250 ) ) ;
#97 = PERSON_AND_ORGANIZATION_ROLE ( 'creator' ) ;
#98 = CC_DESIGN_PERSON_AND_ORGANIZATION_ASSIGNMENT ( #160, #118, ( #96 ) ) ;
#99 = VECTOR ( 'NONE', #62, 1000.000000000000000 ) ;
#100 = APPLICATION_PROTOCOL_DEFINITION ( 'international standard', 'config_control_design', 1994, #52 ) ;
#101 = VERTEX_POINT ( 'NONE', #261 ) ;
#102 = LOCAL_TIME ( 12, 0, 14.00000000000000000, #202 ) ;
#103 = VERTEX_POINT ( 'NONE', #260 ) ;
#104 = FACE_OUTER_BOUND ( 'NONE', #256, .T. ) ;
#105 = CARTESIAN_POINT ( 'NONE',  ( 0.000000000000000000, 0.000000000000000000, 5.000000000000000000 ) ) ;
#106 = EDGE_CURVE ( 'NONE', #159, #120, #227, .T. ) ;
#107 = AXIS2_PLACEMENT_3D ( 'NONE', #269, #190, #65 ) ;
#108 = ORIENTED_EDGE ( 'NONE', *, *, #241, .T. ) ;
#109 = CARTESIAN_POINT ( 'NONE',  ( -7.000000000000000000, 0.000000000000000000, 5.000000000000000000 ) ) ;
#110 = LINE ( 'NONE', #109, #283 ) ;
#111 = AXIS2_PLACEMENT_3D ( 'NONE', #9, #133, #152 ) ;
#112 = DIRECTION ( 'NONE',  ( 1.000000000000000000, 0.000000000000000000, 0.000000000000000000 ) ) ;
#113 = DIRECTION ( 'NONE',  ( -0.000000000000000000, -0.000000000000000000, -1.000000000000000000 ) ) ;
#114 = PERSON_AND_ORGANIZATION ( #243, #296 ) ;
#115 = PRODUCT_RELATED_PRODUCT_CATEGORY ( 'detail', '', ( #96 ) ) ;
#116 = CIRCLE ( 'NONE', #246, 0.1999999999999996503 ) ;
#117 = EDGE_CURVE ( 'NONE', #161, #103, #66, .T. ) ;
#118 = PERSON_AND_ORGANIZATION_ROLE ( 'design_owner' ) ;
#119 = APPROVAL_STATUS ( 'not_yet_approved' ) ;
#120 = VERTEX_POINT ( 'NONE', #172 ) ;
#121 = CYLINDRICAL_SURFACE ( 'NONE', #287, 7.000000000000000000 ) ;
#122 = EDGE_LOOP ( 'NONE', ( #22, #229, #184, #285 ) ) ;
#123 = FACE_BOUND ( 'NONE', #279, .T. ) ;
#124 = APPLICATION_CONTEXT ( 'configuration controlled 3d designs of mechanical parts and assemblies' ) ;
#125 = AXIS2_PLACEMENT_3D ( 'NONE', #295, #38, #175 ) ;
#126 = EDGE_LOOP ( 'NONE', ( #281, #180 ) ) ;
#127 = CC_DESIGN_APPROVAL ( #236, ( #129 ) ) ;
#128 = CARTESIAN_POINT ( 'NONE',  ( 7.000000000000000000, 8.572527594031473190E-16, 5.000000000000000000 ) ) ;
#129 = PRODUCT_DEFINITION ( 'NEZNÁMÝ', '', #252, #11 ) ;
#130 = DIRECTION ( 'NONE',  ( -1.000000000000000000, 0.000000000000000000, 0.000000000000000000 ) ) ;
#131 = DIRECTION ( 'NONE',  ( 1.000000000000000000, 0.000000000000000000, 0.000000000000000000 ) ) ;
#132 = APPROVAL_PERSON_ORGANIZATION ( #248, #236, #158 ) ;
#133 = DIRECTION ( 'NONE',  ( 0.000000000000000000, 0.000000000000000000, 1.000000000000000000 ) ) ;
#134 = DIRECTION ( 'NONE',  ( 0.000000000000000000, 0.000000000000000000, 1.000000000000000000 ) ) ;
#135 = DATE_TIME_ROLE ( 'creation_date' ) ;
#136 = ORIENTED_EDGE ( 'NONE', *, *, #106, .T. ) ;
#137 = PERSON_AND_ORGANIZATION_ROLE ( 'creator' ) ;
#138 = CALENDAR_DATE ( 2022, 7, 7 ) ;
#139 =( NAMED_UNIT ( * ) SI_UNIT ( $, .STERADIAN. ) SOLID_ANGLE_UNIT ( ) );
#140 = ORIENTED_EDGE ( 'NONE', *, *, #241, .F. ) ;
#141 = EDGE_CURVE ( 'NONE', #29, #48, #92, .T. ) ;
#142 = DIRECTION ( 'NONE',  ( 1.000000000000000000, 0.000000000000000000, -0.000000000000000000 ) ) ;
#143 = APPROVAL_DATE_TIME ( #5, #164 ) ;
#144 = DIRECTION ( 'NONE',  ( 0.000000000000000000, 0.000000000000000000, 1.000000000000000000 ) ) ;
#145 = DIRECTION ( 'NONE',  ( 1.000000000000000000, 0.000000000000000000, 0.000000000000000000 ) ) ;
#146 = ADVANCED_FACE ( 'NONE', ( #196 ), #149, .T. ) ;
#147 = ORIENTED_EDGE ( 'NONE', *, *, #141, .T. ) ;
#148 = CARTESIAN_POINT ( 'NONE',  ( -4.099999999999999645, 0.000000000000000000, 805.0000000000000000 ) ) ;
#149 = CYLINDRICAL_SURFACE ( 'NONE', #107, 4.099999999999999645 ) ;
#150 = LOCAL_TIME ( 12, 0, 14.00000000000000000, #280 ) ;
#151 = DIRECTION ( 'NONE',  ( 0.000000000000000000, 0.000000000000000000, 1.000000000000000000 ) ) ;
#152 = DIRECTION ( 'NONE',  ( 1.000000000000000000, 0.000000000000000000, 0.000000000000000000 ) ) ;
#153 = CIRCLE ( 'NONE', #23, 4.099999999999999645 ) ;
#154 = CARTESIAN_POINT ( 'NONE',  ( 0.000000000000000000, 0.000000000000000000, 5.199999999999982414 ) ) ;
#155 = EDGE_CURVE ( 'NONE', #120, #159, #14, .T. ) ;
#156 = FACE_OUTER_BOUND ( 'NONE', #264, .T. ) ;
#157 = VERTEX_POINT ( 'NONE', #86 ) ;
#158 = APPROVAL_ROLE ( '' ) ;
#159 = VERTEX_POINT ( 'NONE', #12 ) ;
#160 = PERSON_AND_ORGANIZATION ( #243, #296 ) ;
#161 = VERTEX_POINT ( 'NONE', #64 ) ;
#162 = PERSON_AND_ORGANIZATION ( #243, #296 ) ;
#163 = PRODUCT_DEFINITION_SHAPE ( 'NONE', 'NONE',  #129 ) ;
#164 = APPROVAL ( #119, 'NEURÈENÝ' ) ;
#165 = ORIENTED_EDGE ( 'NONE', *, *, #88, .T. ) ;
#166 = CARTESIAN_POINT ( 'NONE',  ( 0.000000000000000000, 0.000000000000000000, 805.0000000000000000 ) ) ;
#167 = ORIENTED_EDGE ( 'NONE', *, *, #225, .T. ) ;
#168 = EDGE_CURVE ( 'NONE', #157, #46, #272, .T. ) ;
#169 = AXIS2_PLACEMENT_3D ( 'NONE', #105, #189, #55 ) ;
#170 = CARTESIAN_POINT ( 'NONE',  ( 0.000000000000000000, 0.000000000000000000, 0.000000000000000000 ) ) ;
#171 = ORIENTED_EDGE ( 'NONE', *, *, #141, .F. ) ;
#172 = CARTESIAN_POINT ( 'NONE',  ( 4.299999999999998934, 0.000000000000000000, 4.999999999999991118 ) ) ;
#173 = AXIS2_PLACEMENT_3D ( 'NONE', #13, #239, #130 ) ;
#174 = CARTESIAN_POINT ( 'NONE',  ( 0.000000000000000000, 0.000000000000000000, 5.000000000000000000 ) ) ;
#175 = DIRECTION ( 'NONE',  ( 1.000000000000000000, 0.000000000000000000, 0.000000000000000000 ) ) ;
#176 = CC_DESIGN_PERSON_AND_ORGANIZATION_ASSIGNMENT ( #114, #137, ( #129 ) ) ;
#177 = DIRECTION ( 'NONE',  ( 1.224646799147353207E-16, 1.000000000000000000, -0.000000000000000000 ) ) ;
#178 = APPROVAL_DATE_TIME ( #21, #78 ) ;
#179 = CARTESIAN_POINT ( 'NONE',  ( 0.000000000000000000, 0.000000000000000000, 0.000000000000000000 ) ) ;
#180 = ORIENTED_EDGE ( 'NONE', *, *, #306, .T. ) ;
#181 = TOROIDAL_SURFACE ( 'NONE', #53, 4.299999999999998934, 0.2000000000000000111 ) ;
#182 = PERSON_AND_ORGANIZATION ( #243, #296 ) ;
#183 = PERSON_AND_ORGANIZATION ( #243, #296 ) ;
#184 = ORIENTED_EDGE ( 'NONE', *, *, #155, .F. ) ;
#185 = CARTESIAN_POINT ( 'NONE',  ( -4.099999999999999645, 0.000000000000000000, 5.199999999999982414 ) ) ;
#186 = DIRECTION ( 'NONE',  ( 1.000000000000000000, 0.000000000000000000, 0.000000000000000000 ) ) ;
#187 = PLANE ( 'NONE',  #244 ) ;
#188 = AXIS2_PLACEMENT_3D ( 'NONE', #31, #57, #145 ) ;
#189 = DIRECTION ( 'NONE',  ( 0.000000000000000000, 0.000000000000000000, 1.000000000000000000 ) ) ;
#190 = DIRECTION ( 'NONE',  ( -0.000000000000000000, -0.000000000000000000, -1.000000000000000000 ) ) ;
#191 = EDGE_CURVE ( 'NONE', #101, #290, #194, .T. ) ;
#192 = CARTESIAN_POINT ( 'NONE',  ( 0.000000000000000000, 0.000000000000000000, 5.199999999999982414 ) ) ;
#193 = PLANE ( 'NONE',  #58 ) ;
#194 = CIRCLE ( 'NONE', #77, 7.000000000000000000 ) ;
#195 = EDGE_CURVE ( 'NONE', #48, #157, #265, .T. ) ;
#196 = FACE_OUTER_BOUND ( 'NONE', #232, .T. ) ;
#197 = LINE ( 'NONE', #298, #99 ) ;
#198 =( NAMED_UNIT ( * ) PLANE_ANGLE_UNIT ( ) SI_UNIT ( $, .RADIAN. ) );
#199 = AXIS2_PLACEMENT_3D ( 'NONE', #174, #89, #131 ) ;
#200 = DATE_AND_TIME ( #49, #102 ) ;
#201 = EDGE_CURVE ( 'NONE', #29, #46, #197, .T. ) ;
#202 = COORDINATED_UNIVERSAL_TIME_OFFSET ( 1, 0, .AHEAD. ) ;
#203 = APPROVAL_STATUS ( 'not_yet_approved' ) ;
#204 = APPROVAL_ROLE ( '' ) ;
#205 = ORIENTED_EDGE ( 'NONE', *, *, #254, .F. ) ;
#206 = ORIENTED_EDGE ( 'NONE', *, *, #201, .T. ) ;
#207 = FACE_OUTER_BOUND ( 'NONE', #228, .T. ) ;
#208 = DIRECTION ( 'NONE',  ( -1.000000000000000000, 0.000000000000000000, 0.000000000000000000 ) ) ;
#209 = DIRECTION ( 'NONE',  ( -0.000000000000000000, -0.000000000000000000, -1.000000000000000000 ) ) ;
#210 = CARTESIAN_POINT ( 'NONE',  ( 0.000000000000000000, 0.000000000000000000, 5.000000000000000000 ) ) ;
#211 = TOROIDAL_SURFACE ( 'NONE', #61, 4.299999999999998934, 0.2000000000000000111 ) ;
#212 = ORIENTED_EDGE ( 'NONE', *, *, #195, .F. ) ;
#213 = CC_DESIGN_DATE_AND_TIME_ASSIGNMENT ( #226, #24, ( #258 ) ) ;
#214 = LOCAL_TIME ( 12, 0, 14.00000000000000000, #50 ) ;
#215 = DIRECTION ( 'NONE',  ( -0.000000000000000000, -0.000000000000000000, -1.000000000000000000 ) ) ;
#216 = DIRECTION ( 'NONE',  ( 1.000000000000000000, 0.000000000000000000, 0.000000000000000000 ) ) ;
#217 = CYLINDRICAL_SURFACE ( 'NONE', #173, 4.099999999999999645 ) ;
#218 = CIRCLE ( 'NONE', #262, 7.000000000000000000 ) ;
#219 = FACE_OUTER_BOUND ( 'NONE', #305, .T. ) ;
#220 = DIRECTION ( 'NONE',  ( -0.000000000000000000, -0.000000000000000000, -1.000000000000000000 ) ) ;
#221 = COORDINATED_UNIVERSAL_TIME_OFFSET ( 1, 0, .AHEAD. ) ;
#222 = ORIENTED_EDGE ( 'NONE', *, *, #117, .T. ) ;
#223 = APPROVAL_ROLE ( '' ) ;
#224 = ORIENTED_EDGE ( 'NONE', *, *, #168, .F. ) ;
#225 = EDGE_CURVE ( 'NONE', #48, #29, #240, .T. ) ;
#226 = DATE_AND_TIME ( #138, #214 ) ;
#227 = CIRCLE ( 'NONE', #188, 4.299999999999998934 ) ;
#228 = EDGE_LOOP ( 'NONE', ( #147, #167 ) ) ;
#229 = ORIENTED_EDGE ( 'NONE', *, *, #231, .T. ) ;
#230 = FACE_OUTER_BOUND ( 'NONE', #263, .T. ) ;
#231 = EDGE_CURVE ( 'NONE', #46, #159, #116, .T. ) ;
#232 = EDGE_LOOP ( 'NONE', ( #212, #171, #206, #165 ) ) ;
#233 = UNCERTAINTY_MEASURE_WITH_UNIT (LENGTH_MEASURE( 1.000000000000000082E-05 ), #301, 'distance_accuracy_value', 'NONE');
#234 = DIRECTION ( 'NONE',  ( -0.000000000000000000, -0.000000000000000000, -1.000000000000000000 ) ) ;
#235 = ORIENTED_EDGE ( 'NONE', *, *, #106, .F. ) ;
#236 = APPROVAL ( #203, 'NEURÈENÝ' ) ;
#237 = CYLINDRICAL_SURFACE ( 'NONE', #81, 7.000000000000000000 ) ;
#238 = CLOSED_SHELL ( 'NONE', ( #4, #273, #36, #85, #40, #299, #146, #71, #293 ) ) ;
#239 = DIRECTION ( 'NONE',  ( -0.000000000000000000, -0.000000000000000000, -1.000000000000000000 ) ) ;
#240 = CIRCLE ( 'NONE', #111, 4.099999999999999645 ) ;
#241 = EDGE_CURVE ( 'NONE', #101, #161, #110, .T. ) ;
#242 = LINE ( 'NONE', #128, #277 ) ;
#243 = PERSON ( 'NEURÈENÝ', 'NEURÈENÝ', 'NEURÈENÝ', ('NEURÈENÝ'), ('NEURÈENÝ'), ('NEURÈENÝ') ) ;
#244 = AXIS2_PLACEMENT_3D ( 'NONE', #166, #144, #142 ) ;
#245 = DIRECTION ( 'NONE',  ( 0.000000000000000000, 0.000000000000000000, 1.000000000000000000 ) ) ;
#246 = AXIS2_PLACEMENT_3D ( 'NONE', #16, #177, #292 ) ;
#247 = FACE_OUTER_BOUND ( 'NONE', #251, .T. ) ;
#248 = PERSON_AND_ORGANIZATION ( #243, #296 ) ;
#249 = AXIS2_PLACEMENT_3D ( 'NONE', #3, #34, #282 ) ;
#250 = MECHANICAL_CONTEXT ( 'NONE', #52, 'mechanical' ) ;
#251 = EDGE_LOOP ( 'NONE', ( #56, #205 ) ) ;
#252 = PRODUCT_DEFINITION_FORMATION_WITH_SPECIFIED_SOURCE ( 'LIBOVOLNÝ', '', #96, .NOT_KNOWN. ) ;
#253 = CALENDAR_DATE ( 2022, 7, 7 ) ;
#254 = EDGE_CURVE ( 'NONE', #103, #161, #303, .T. ) ;
#255 = PERSON_AND_ORGANIZATION_ROLE ( 'classification_officer' ) ;
#256 = EDGE_LOOP ( 'NONE', ( #95, #28, #59, #140 ) ) ;
#257 = DIRECTION ( 'NONE',  ( 1.000000000000000000, 0.000000000000000000, 0.000000000000000000 ) ) ;
#258 = SECURITY_CLASSIFICATION ( '', '', #73 ) ;
#259 = ORIENTED_EDGE ( 'NONE', *, *, #168, .T. ) ;
#260 = CARTESIAN_POINT ( 'NONE',  ( 7.000000000000000000, 8.572527594031473190E-16, 0.000000000000000000 ) ) ;
#261 = CARTESIAN_POINT ( 'NONE',  ( -7.000000000000000000, 0.000000000000000000, 5.000000000000000000 ) ) ;
#262 = AXIS2_PLACEMENT_3D ( 'NONE', #63, #151, #257 ) ;
#263 = EDGE_LOOP ( 'NONE', ( #276, #25, #108, #222 ) ) ;
#264 = EDGE_LOOP ( 'NONE', ( #72, #224, #8, #235 ) ) ;
#265 = LINE ( 'NONE', #35, #1 ) ;
#266 = DIRECTION ( 'NONE',  ( 0.000000000000000000, 0.000000000000000000, 1.000000000000000000 ) ) ;
#267 = CC_DESIGN_APPROVAL ( #164, ( #258 ) ) ;
#268 = DIRECTION ( 'NONE',  ( 1.000000000000000000, 0.000000000000000000, -0.000000000000000000 ) ) ;
#269 = CARTESIAN_POINT ( 'NONE',  ( 0.000000000000000000, 0.000000000000000000, 805.0000000000000000 ) ) ;
#270 = AXIS2_PLACEMENT_3D ( 'NONE', #170, #297, #44 ) ;
#271 = CARTESIAN_POINT ( 'NONE',  ( 0.000000000000000000, 0.000000000000000000, 0.000000000000000000 ) ) ;
#272 = CIRCLE ( 'NONE', #83, 4.099999999999999645 ) ;
#273 = ADVANCED_FACE ( 'NONE', ( #219 ), #217, .T. ) ;
#274 = PERSON_AND_ORGANIZATION_ROLE ( 'design_supplier' ) ;
#275 = DIRECTION ( 'NONE',  ( 1.000000000000000000, 0.000000000000000000, 0.000000000000000000 ) ) ;
#276 = ORIENTED_EDGE ( 'NONE', *, *, #288, .F. ) ;
#277 = VECTOR ( 'NONE', #113, 1000.000000000000000 ) ;
#278 = APPROVAL_STATUS ( 'not_yet_approved' ) ;
#279 = EDGE_LOOP ( 'NONE', ( #60, #136 ) ) ;
#280 = COORDINATED_UNIVERSAL_TIME_OFFSET ( 1, 0, .AHEAD. ) ;
#281 = ORIENTED_EDGE ( 'NONE', *, *, #191, .T. ) ;
#282 = DIRECTION ( 'NONE',  ( 0.000000000000000000, 0.000000000000000000, -1.000000000000000000 ) ) ;
#283 = VECTOR ( 'NONE', #215, 1000.000000000000000 ) ;
#284 = DIRECTION ( 'NONE',  ( 0.000000000000000000, 0.000000000000000000, 1.000000000000000000 ) ) ;
#285 = ORIENTED_EDGE ( 'NONE', *, *, #10, .F. ) ;
#286 = DIRECTION ( 'NONE',  ( 1.000000000000000000, 0.000000000000000000, 0.000000000000000000 ) ) ;
#287 = AXIS2_PLACEMENT_3D ( 'NONE', #80, #209, #307 ) ;
#288 = EDGE_CURVE ( 'NONE', #290, #103, #242, .T. ) ;
#289 = AXIS2_PLACEMENT_3D ( 'NONE', #271, #91, #17 ) ;
#290 = VERTEX_POINT ( 'NONE', #67 ) ;
#291 =( GEOMETRIC_REPRESENTATION_CONTEXT ( 3 ) GLOBAL_UNCERTAINTY_ASSIGNED_CONTEXT ( ( #233 ) ) GLOBAL_UNIT_ASSIGNED_CONTEXT ( ( #301, #198, #139 ) ) REPRESENTATION_CONTEXT ( 'NONE', 'WORKASPACE' ) );
#292 = DIRECTION ( 'NONE',  ( -1.000000000000000000, 1.224646799147353454E-16, 0.000000000000000000 ) ) ;
#293 = ADVANCED_FACE ( 'NONE', ( #156 ), #181, .F. ) ;
#294 = CARTESIAN_POINT ( 'NONE',  ( 0.000000000000000000, 0.000000000000000000, 0.000000000000000000 ) ) ;
#295 = CARTESIAN_POINT ( 'NONE',  ( 0.000000000000000000, 0.000000000000000000, 805.0000000000000000 ) ) ;
#296 = ORGANIZATION ( 'NEURÈENÝ', 'NEURÈENÝ', '' ) ;
#297 = DIRECTION ( 'NONE',  ( 0.000000000000000000, 0.000000000000000000, 1.000000000000000000 ) ) ;
#298 = CARTESIAN_POINT ( 'NONE',  ( -4.099999999999999645, 0.000000000000000000, 805.0000000000000000 ) ) ;
#299 = ADVANCED_FACE ( 'NONE', ( #247 ), #193, .F. ) ;
#300 = APPROVAL_PERSON_ORGANIZATION ( #304, #78, #223 ) ;
#301 =( LENGTH_UNIT ( ) NAMED_UNIT ( * ) SI_UNIT ( .MILLI., .METRE. ) );
#302 = PERSON_AND_ORGANIZATION ( #243, #296 ) ;
#303 = CIRCLE ( 'NONE', #289, 7.000000000000000000 ) ;
#304 = PERSON_AND_ORGANIZATION ( #243, #296 ) ;
#305 = EDGE_LOOP ( 'NONE', ( #70, #20, #259, #32 ) ) ;
#306 = EDGE_CURVE ( 'NONE', #290, #101, #218, .T. ) ;
#307 = DIRECTION ( 'NONE',  ( -1.000000000000000000, 0.000000000000000000, 0.000000000000000000 ) ) ;
ENDSEC;
END-ISO-10303-21;
