ISO-10303-21;
HEADER;
FILE_DESCRIPTION (( 'STEP AP203' ),
    '1' );
FILE_NAME ('85f9.STEP',
    '2022-07-07T10:18:33',
    ( '' ),
    ( '' ),
    'SwSTEP 2.0',
    'SolidWorks 2019',
    '' );
FILE_SCHEMA (( 'CONFIG_CONTROL_DESIGN' ));
ENDSEC;

DATA;
#1 = APPROVAL_ROLE ( '' ) ;
#2 =( NAMED_UNIT ( * ) SI_UNIT ( $, .STERADIAN. ) SOLID_ANGLE_UNIT ( ) );
#3 = ORIENTED_EDGE ( 'NONE', *, *, #10, .F. ) ;
#4 = APPROVAL_DATE_TIME ( #194, #193 ) ;
#5 = ORIENTED_EDGE ( 'NONE', *, *, #250, .F. ) ;
#6 = ORIENTED_EDGE ( 'NONE', *, *, #170, .T. ) ;
#7 = CARTESIAN_POINT ( 'NONE',  ( 2.700000000000000178, 0.000000000000000000, 3.199999999999980638 ) ) ;
#8 = ORIENTED_EDGE ( 'NONE', *, *, #106, .F. ) ;
#9 = DIRECTION ( 'NONE',  ( 0.000000000000000000, 0.000000000000000000, 1.000000000000000000 ) ) ;
#10 = EDGE_CURVE ( 'NONE', #149, #181, #252, .T. ) ;
#11 = ORIENTED_EDGE ( 'NONE', *, *, #113, .F. ) ;
#12 = CYLINDRICAL_SURFACE ( 'NONE', #59, 2.500000000000000000 ) ;
#13 = ORIENTED_EDGE ( 'NONE', *, *, #264, .F. ) ;
#14 = AXIS2_PLACEMENT_3D ( 'NONE', #33, #9, #34 ) ;
#15 = CIRCLE ( 'NONE', #263, 2.700000000000000178 ) ;
#16 = EDGE_LOOP ( 'NONE', ( #53, #13, #100, #6 ) ) ;
#17 = DIRECTION ( 'NONE',  ( 1.000000000000000000, 0.000000000000000000, 0.000000000000000000 ) ) ;
#18 = EDGE_CURVE ( 'NONE', #181, #273, #212, .T. ) ;
#19 = CARTESIAN_POINT ( 'NONE',  ( -2.500000000000000000, 0.000000000000000000, 803.0000000000000000 ) ) ;
#20 = CARTESIAN_POINT ( 'NONE',  ( 0.000000000000000000, 0.000000000000000000, 0.000000000000000000 ) ) ;
#21 = CARTESIAN_POINT ( 'NONE',  ( 0.000000000000000000, 0.000000000000000000, 803.0000000000000000 ) ) ;
#22 = PERSON_AND_ORGANIZATION ( #72, #42 ) ;
#23 = AXIS2_PLACEMENT_3D ( 'NONE', #163, #188, #88 ) ;
#24 = DATE_TIME_ROLE ( 'classification_date' ) ;
#25 = COORDINATED_UNIVERSAL_TIME_OFFSET ( 1, 0, .AHEAD. ) ;
#26 = PERSON_AND_ORGANIZATION_ROLE ( 'creator' ) ;
#27 = CC_DESIGN_PERSON_AND_ORGANIZATION_ASSIGNMENT ( #281, #92, ( #240 ) ) ;
#28 = CARTESIAN_POINT ( 'NONE',  ( 5.000000000000000000, 6.123233995736766282E-16, 3.000000000000000000 ) ) ;
#29 = ORIENTED_EDGE ( 'NONE', *, *, #262, .F. ) ;
#30 = DIRECTION ( 'NONE',  ( -0.000000000000000000, -0.000000000000000000, -1.000000000000000000 ) ) ;
#31 = ORIENTED_EDGE ( 'NONE', *, *, #170, .F. ) ;
#32 = APPROVAL_PERSON_ORGANIZATION ( #115, #122, #1 ) ;
#33 = CARTESIAN_POINT ( 'NONE',  ( 0.000000000000000000, 0.000000000000000000, 0.000000000000000000 ) ) ;
#34 = DIRECTION ( 'NONE',  ( 1.000000000000000000, 0.000000000000000000, 0.000000000000000000 ) ) ;
#35 = ORIENTED_EDGE ( 'NONE', *, *, #250, .T. ) ;
#36 = DIRECTION ( 'NONE',  ( -0.000000000000000000, -0.000000000000000000, -1.000000000000000000 ) ) ;
#37 = CIRCLE ( 'NONE', #285, 2.500000000000000000 ) ;
#38 = CARTESIAN_POINT ( 'NONE',  ( 2.700000000000000178, 0.000000000000000000, 2.999999999999990674 ) ) ;
#39 = FACE_OUTER_BOUND ( 'NONE', #226, .T. ) ;
#40 = DIRECTION ( 'NONE',  ( 0.000000000000000000, 0.000000000000000000, 1.000000000000000000 ) ) ;
#41 = CARTESIAN_POINT ( 'NONE',  ( 2.500000000000000000, 3.061616997868383141E-16, 803.0000000000000000 ) ) ;
#42 = ORGANIZATION ( 'NEURÈENÝ', 'NEURÈENÝ', '' ) ;
#43 = LINE ( 'NONE', #19, #119 ) ;
#44 = SECURITY_CLASSIFICATION_LEVEL ( 'unclassified' ) ;
#45 = ADVANCED_FACE ( 'NONE', ( #126 ), #175, .T. ) ;
#46 = CALENDAR_DATE ( 2022, 7, 7 ) ;
#47 = APPROVAL_ROLE ( '' ) ;
#48 = PERSON_AND_ORGANIZATION ( #72, #42 ) ;
#49 = ADVANCED_FACE ( 'NONE', ( #148 ), #223, .F. ) ;
#50 = ORIENTED_EDGE ( 'NONE', *, *, #183, .F. ) ;
#51 = UNCERTAINTY_MEASURE_WITH_UNIT (LENGTH_MEASURE( 1.000000000000000082E-05 ), #187, 'distance_accuracy_value', 'NONE');
#52 = ORIENTED_EDGE ( 'NONE', *, *, #10, .T. ) ;
#53 = ORIENTED_EDGE ( 'NONE', *, *, #127, .F. ) ;
#54 = DIRECTION ( 'NONE',  ( 0.000000000000000000, 0.000000000000000000, 1.000000000000000000 ) ) ;
#55 = CC_DESIGN_APPROVAL ( #122, ( #278 ) ) ;
#56 = ORIENTED_EDGE ( 'NONE', *, *, #198, .F. ) ;
#57 = ORIENTED_EDGE ( 'NONE', *, *, #91, .T. ) ;
#58 = DIRECTION ( 'NONE',  ( 0.000000000000000000, 0.000000000000000000, 1.000000000000000000 ) ) ;
#59 = AXIS2_PLACEMENT_3D ( 'NONE', #205, #107, #207 ) ;
#60 = AXIS2_PLACEMENT_3D ( 'NONE', #245, #30, #151 ) ;
#61 = DIRECTION ( 'NONE',  ( -0.000000000000000000, -0.000000000000000000, -1.000000000000000000 ) ) ;
#62 = CARTESIAN_POINT ( 'NONE',  ( -2.500000000000000000, 0.000000000000000000, 803.0000000000000000 ) ) ;
#63 = EDGE_CURVE ( 'NONE', #149, #297, #37, .T. ) ;
#64 = DIRECTION ( 'NONE',  ( 0.000000000000000000, 0.000000000000000000, 1.000000000000000000 ) ) ;
#65 = AXIS2_PLACEMENT_3D ( 'NONE', #236, #209, #112 ) ;
#66 = APPROVAL_DATE_TIME ( #168, #122 ) ;
#67 = PERSON_AND_ORGANIZATION ( #72, #42 ) ;
#68 = TOROIDAL_SURFACE ( 'NONE', #94, 2.700000000000000178, 0.2000000000000000111 ) ;
#69 = APPROVAL_ROLE ( '' ) ;
#70 = PRODUCT_DEFINITION ( 'NEZNÁMÝ', '', #240, #171 ) ;
#71 = CARTESIAN_POINT ( 'NONE',  ( 0.000000000000000000, 0.000000000000000000, 0.000000000000000000 ) ) ;
#72 = PERSON ( 'NEURÈENÝ', 'NEURÈENÝ', 'NEURÈENÝ', ('NEURÈENÝ'), ('NEURÈENÝ'), ('NEURÈENÝ') ) ;
#73 = AXIS2_PLACEMENT_3D ( 'NONE', #254, #111, #186 ) ;
#74 = FACE_OUTER_BOUND ( 'NONE', #124, .T. ) ;
#75 = ORIENTED_EDGE ( 'NONE', *, *, #63, .T. ) ;
#76 = DIRECTION ( 'NONE',  ( 1.000000000000000000, 0.000000000000000000, 0.000000000000000000 ) ) ;
#77 = DIRECTION ( 'NONE',  ( 1.000000000000000000, 0.000000000000000000, 0.000000000000000000 ) ) ;
#78 = VECTOR ( 'NONE', #296, 1000.000000000000000 ) ;
#79 = ORIENTED_EDGE ( 'NONE', *, *, #262, .T. ) ;
#80 = LOCAL_TIME ( 12, 18, 33.00000000000000000, #238 ) ;
#81 = CARTESIAN_POINT ( 'NONE',  ( 2.500000000000000000, 3.061616997868383141E-16, 3.199999999999980638 ) ) ;
#82 = APPROVAL ( #261, 'NEURÈENÝ' ) ;
#83 = DIRECTION ( 'NONE',  ( 0.000000000000000000, 0.000000000000000000, 1.000000000000000000 ) ) ;
#84 = CARTESIAN_POINT ( 'NONE',  ( 0.000000000000000000, 0.000000000000000000, 803.0000000000000000 ) ) ;
#85 = VECTOR ( 'NONE', #105, 1000.000000000000000 ) ;
#86 = AXIS2_PLACEMENT_3D ( 'NONE', #84, #135, #89 ) ;
#87 = DIRECTION ( 'NONE',  ( 0.000000000000000000, 0.000000000000000000, 1.000000000000000000 ) ) ;
#88 = DIRECTION ( 'NONE',  ( 1.000000000000000000, 0.000000000000000000, -0.000000000000000000 ) ) ;
#89 = DIRECTION ( 'NONE',  ( 1.000000000000000000, 0.000000000000000000, 0.000000000000000000 ) ) ;
#90 = PERSON_AND_ORGANIZATION ( #72, #42 ) ;
#91 = EDGE_CURVE ( 'NONE', #243, #197, #93, .T. ) ;
#92 = PERSON_AND_ORGANIZATION_ROLE ( 'creator' ) ;
#93 = CIRCLE ( 'NONE', #152, 2.500000000000000000 ) ;
#94 = AXIS2_PLACEMENT_3D ( 'NONE', #161, #87, #131 ) ;
#95 = COORDINATED_UNIVERSAL_TIME_OFFSET ( 1, 0, .AHEAD. ) ;
#96 = ORIENTED_EDGE ( 'NONE', *, *, #106, .T. ) ;
#97 = PERSON_AND_ORGANIZATION_ROLE ( 'design_supplier' ) ;
#98 = CARTESIAN_POINT ( 'NONE',  ( 2.500000000000000000, 3.061616997868383141E-16, 803.0000000000000000 ) ) ;
#99 = CC_DESIGN_APPROVAL ( #193, ( #240 ) ) ;
#100 = ORIENTED_EDGE ( 'NONE', *, *, #234, .T. ) ;
#101 = CARTESIAN_POINT ( 'NONE',  ( 0.000000000000000000, 0.000000000000000000, 3.000000000000000000 ) ) ;
#102 = EDGE_CURVE ( 'NONE', #297, #273, #147, .T. ) ;
#103 = ORIENTED_EDGE ( 'NONE', *, *, #264, .T. ) ;
#104 = DIRECTION ( 'NONE',  ( 0.000000000000000000, -1.000000000000000000, 0.000000000000000000 ) ) ;
#105 = DIRECTION ( 'NONE',  ( -0.000000000000000000, -0.000000000000000000, -1.000000000000000000 ) ) ;
#106 = EDGE_CURVE ( 'NONE', #174, #155, #290, .T. ) ;
#107 = DIRECTION ( 'NONE',  ( -0.000000000000000000, -0.000000000000000000, -1.000000000000000000 ) ) ;
#108 = CARTESIAN_POINT ( 'NONE',  ( -2.500000000000000000, 0.000000000000000000, 3.199999999999980638 ) ) ;
#109 = CYLINDRICAL_SURFACE ( 'NONE', #143, 5.000000000000000000 ) ;
#110 = DIRECTION ( 'NONE',  ( 1.000000000000000000, 0.000000000000000000, -0.000000000000000000 ) ) ;
#111 = DIRECTION ( 'NONE',  ( -0.000000000000000000, -0.000000000000000000, -1.000000000000000000 ) ) ;
#112 = DIRECTION ( 'NONE',  ( 1.000000000000000000, 0.000000000000000000, 0.000000000000000000 ) ) ;
#113 = EDGE_CURVE ( 'NONE', #172, #153, #158, .T. ) ;
#114 = COORDINATED_UNIVERSAL_TIME_OFFSET ( 1, 0, .AHEAD. ) ;
#115 = PERSON_AND_ORGANIZATION ( #72, #42 ) ;
#116 = ADVANCED_FACE ( 'NONE', ( #204 ), #12, .T. ) ;
#117 = SHAPE_DEFINITION_REPRESENTATION ( #130, #260 ) ;
#118 = CIRCLE ( 'NONE', #271, 2.500000000000000000 ) ;
#119 = VECTOR ( 'NONE', #211, 1000.000000000000000 ) ;
#120 = CARTESIAN_POINT ( 'NONE',  ( -5.000000000000000000, 0.000000000000000000, 0.000000000000000000 ) ) ;
#121 = ORIENTED_EDGE ( 'NONE', *, *, #18, .T. ) ;
#122 = APPROVAL ( #215, 'NEURÈENÝ' ) ;
#123 = DIRECTION ( 'NONE',  ( 0.000000000000000000, 0.000000000000000000, 1.000000000000000000 ) ) ;
#124 = EDGE_LOOP ( 'NONE', ( #268, #8, #79, #35 ) ) ;
#125 = DIRECTION ( 'NONE',  ( 0.000000000000000000, 0.000000000000000000, 1.000000000000000000 ) ) ;
#126 = FACE_OUTER_BOUND ( 'NONE', #246, .T. ) ;
#127 = EDGE_CURVE ( 'NONE', #243, #149, #276, .T. ) ;
#128 = EDGE_LOOP ( 'NONE', ( #5, #11 ) ) ;
#129 = CARTESIAN_POINT ( 'NONE',  ( 0.000000000000000000, 0.000000000000000000, 3.000000000000000000 ) ) ;
#130 = PRODUCT_DEFINITION_SHAPE ( 'NONE', 'NONE',  #70 ) ;
#131 = DIRECTION ( 'NONE',  ( 1.000000000000000000, 0.000000000000000000, 0.000000000000000000 ) ) ;
#132 = FACE_OUTER_BOUND ( 'NONE', #289, .T. ) ;
#133 = MANIFOLD_SOLID_BREP ( 'Zaoblit1', #184 ) ;
#134 = EDGE_CURVE ( 'NONE', #155, #172, #222, .T. ) ;
#135 = DIRECTION ( 'NONE',  ( 0.000000000000000000, 0.000000000000000000, 1.000000000000000000 ) ) ;
#136 = AXIS2_PLACEMENT_3D ( 'NONE', #157, #40, #277 ) ;
#137 =( NAMED_UNIT ( * ) PLANE_ANGLE_UNIT ( ) SI_UNIT ( $, .RADIAN. ) );
#138 = LINE ( 'NONE', #231, #253 ) ;
#139 = CC_DESIGN_DATE_AND_TIME_ASSIGNMENT ( #213, #146, ( #70 ) ) ;
#140 = PERSON_AND_ORGANIZATION ( #72, #42 ) ;
#141 = APPLICATION_CONTEXT ( 'configuration controlled 3d designs of mechanical parts and assemblies' ) ;
#142 = PERSON_AND_ORGANIZATION ( #72, #42 ) ;
#143 = AXIS2_PLACEMENT_3D ( 'NONE', #208, #256, #298 ) ;
#144 = CC_DESIGN_DATE_AND_TIME_ASSIGNMENT ( #283, #24, ( #278 ) ) ;
#145 = DATE_AND_TIME ( #46, #224 ) ;
#146 = DATE_TIME_ROLE ( 'creation_date' ) ;
#147 = CIRCLE ( 'NONE', #178, 0.2000000000000000944 ) ;
#148 = FACE_OUTER_BOUND ( 'NONE', #220, .T. ) ;
#149 = VERTEX_POINT ( 'NONE', #81 ) ;
#150 = EDGE_LOOP ( 'NONE', ( #96, #173 ) ) ;
#151 = DIRECTION ( 'NONE',  ( -1.000000000000000000, 0.000000000000000000, 0.000000000000000000 ) ) ;
#152 = AXIS2_PLACEMENT_3D ( 'NONE', #228, #125, #227 ) ;
#153 = VERTEX_POINT ( 'NONE', #120 ) ;
#154 = CARTESIAN_POINT ( 'NONE',  ( 0.000000000000000000, 0.000000000000000000, 3.199999999999980638 ) ) ;
#155 = VERTEX_POINT ( 'NONE', #292 ) ;
#156 = ORIENTED_EDGE ( 'NONE', *, *, #102, .T. ) ;
#157 = CARTESIAN_POINT ( 'NONE',  ( 0.000000000000000000, 0.000000000000000000, 0.000000000000000000 ) ) ;
#158 = CIRCLE ( 'NONE', #14, 5.000000000000000000 ) ;
#159 = AXIS2_PLACEMENT_3D ( 'NONE', #21, #210, #110 ) ;
#160 = DIRECTION ( 'NONE',  ( 1.000000000000000000, 0.000000000000000000, -0.000000000000000000 ) ) ;
#161 = CARTESIAN_POINT ( 'NONE',  ( 0.000000000000000000, 0.000000000000000000, 3.199999999999980638 ) ) ;
#162 = APPLICATION_CONTEXT ( 'configuration controlled 3d designs of mechanical parts and assemblies' ) ;
#163 = CARTESIAN_POINT ( 'NONE',  ( 0.000000000000000000, 0.000000000000000000, 3.000000000000000000 ) ) ;
#164 = CC_DESIGN_APPROVAL ( #82, ( #70 ) ) ;
#165 = DIRECTION ( 'NONE',  ( -0.000000000000000000, -0.000000000000000000, -1.000000000000000000 ) ) ;
#166 = ADVANCED_FACE ( 'NONE', ( #74 ), #269, .T. ) ;
#167 = LOCAL_TIME ( 12, 18, 33.00000000000000000, #95 ) ;
#168 = DATE_AND_TIME ( #217, #80 ) ;
#169 = AXIS2_PLACEMENT_3D ( 'NONE', #154, #123, #244 ) ;
#170 = EDGE_CURVE ( 'NONE', #297, #149, #118, .T. ) ;
#171 = DESIGN_CONTEXT ( 'detailed design', #162, 'design' ) ;
#172 = VERTEX_POINT ( 'NONE', #251 ) ;
#173 = ORIENTED_EDGE ( 'NONE', *, *, #198, .T. ) ;
#174 = VERTEX_POINT ( 'NONE', #280 ) ;
#175 = CYLINDRICAL_SURFACE ( 'NONE', #60, 2.500000000000000000 ) ;
#176 = ADVANCED_FACE ( 'NONE', ( #39 ), #237, .T. ) ;
#177 = ORIENTED_EDGE ( 'NONE', *, *, #183, .T. ) ;
#178 = AXIS2_PLACEMENT_3D ( 'NONE', #295, #247, #270 ) ;
#179 = AXIS2_PLACEMENT_3D ( 'NONE', #71, #241, #307 ) ;
#180 = ORIENTED_EDGE ( 'NONE', *, *, #63, .F. ) ;
#181 = VERTEX_POINT ( 'NONE', #38 ) ;
#182 = ORIENTED_EDGE ( 'NONE', *, *, #91, .F. ) ;
#183 = EDGE_CURVE ( 'NONE', #273, #181, #15, .T. ) ;
#184 = CLOSED_SHELL ( 'NONE', ( #49, #45, #239, #166, #203, #282, #116, #176, #219 ) ) ;
#185 = APPROVAL_PERSON_ORGANIZATION ( #140, #82, #47 ) ;
#186 = DIRECTION ( 'NONE',  ( -1.000000000000000000, 0.000000000000000000, 0.000000000000000000 ) ) ;
#187 =( LENGTH_UNIT ( ) NAMED_UNIT ( * ) SI_UNIT ( .MILLI., .METRE. ) );
#188 = DIRECTION ( 'NONE',  ( 0.000000000000000000, 0.000000000000000000, 1.000000000000000000 ) ) ;
#189 = CIRCLE ( 'NONE', #65, 5.000000000000000000 ) ;
#190 = PLANE ( 'NONE',  #200 ) ;
#191 = APPLICATION_PROTOCOL_DEFINITION ( 'international standard', 'config_control_design', 1994, #162 ) ;
#192 = CALENDAR_DATE ( 2022, 7, 7 ) ;
#193 = APPROVAL ( #221, 'NEURÈENÝ' ) ;
#194 = DATE_AND_TIME ( #288, #195 ) ;
#195 = LOCAL_TIME ( 12, 18, 33.00000000000000000, #196 ) ;
#196 = COORDINATED_UNIVERSAL_TIME_OFFSET ( 1, 0, .AHEAD. ) ;
#197 = VERTEX_POINT ( 'NONE', #62 ) ;
#198 = EDGE_CURVE ( 'NONE', #155, #174, #189, .T. ) ;
#199 = EDGE_LOOP ( 'NONE', ( #121, #177 ) ) ;
#200 = AXIS2_PLACEMENT_3D ( 'NONE', #20, #58, #160 ) ;
#201 = ORIENTED_EDGE ( 'NONE', *, *, #113, .T. ) ;
#202 = DIRECTION ( 'NONE',  ( 1.000000000000000000, 0.000000000000000000, 0.000000000000000000 ) ) ;
#203 = ADVANCED_FACE ( 'NONE', ( #301, #257 ), #259, .T. ) ;
#204 = FACE_OUTER_BOUND ( 'NONE', #16, .T. ) ;
#205 = CARTESIAN_POINT ( 'NONE',  ( 0.000000000000000000, 0.000000000000000000, 803.0000000000000000 ) ) ;
#206 = LOCAL_TIME ( 12, 18, 33.00000000000000000, #25 ) ;
#207 = DIRECTION ( 'NONE',  ( -1.000000000000000000, 0.000000000000000000, 0.000000000000000000 ) ) ;
#208 = CARTESIAN_POINT ( 'NONE',  ( 0.000000000000000000, 0.000000000000000000, 3.000000000000000000 ) ) ;
#209 = DIRECTION ( 'NONE',  ( 0.000000000000000000, 0.000000000000000000, 1.000000000000000000 ) ) ;
#210 = DIRECTION ( 'NONE',  ( 0.000000000000000000, 0.000000000000000000, 1.000000000000000000 ) ) ;
#211 = DIRECTION ( 'NONE',  ( -0.000000000000000000, -0.000000000000000000, -1.000000000000000000 ) ) ;
#212 = CIRCLE ( 'NONE', #235, 2.700000000000000178 ) ;
#213 = DATE_AND_TIME ( #192, #167 ) ;
#214 = CALENDAR_DATE ( 2022, 7, 7 ) ;
#215 = APPROVAL_STATUS ( 'not_yet_approved' ) ;
#216 = AXIS2_PLACEMENT_3D ( 'NONE', #129, #54, #202 ) ;
#217 = CALENDAR_DATE ( 2022, 7, 7 ) ;
#218 = APPROVAL_PERSON_ORGANIZATION ( #67, #193, #69 ) ;
#219 = ADVANCED_FACE ( 'NONE', ( #132 ), #68, .F. ) ;
#220 = EDGE_LOOP ( 'NONE', ( #31, #156, #294, #3 ) ) ;
#221 = APPROVAL_STATUS ( 'not_yet_approved' ) ;
#222 = LINE ( 'NONE', #28, #78 ) ;
#223 = TOROIDAL_SURFACE ( 'NONE', #169, 2.700000000000000178, 0.2000000000000000111 ) ;
#224 = LOCAL_TIME ( 12, 18, 33.00000000000000000, #114 ) ;
#225 = CARTESIAN_POINT ( 'NONE',  ( 0.000000000000000000, 0.000000000000000000, 3.199999999999980638 ) ) ;
#226 = EDGE_LOOP ( 'NONE', ( #103, #57 ) ) ;
#227 = DIRECTION ( 'NONE',  ( 1.000000000000000000, 0.000000000000000000, 0.000000000000000000 ) ) ;
#228 = CARTESIAN_POINT ( 'NONE',  ( 0.000000000000000000, 0.000000000000000000, 803.0000000000000000 ) ) ;
#229 = ORIENTED_EDGE ( 'NONE', *, *, #127, .T. ) ;
#230 = DIRECTION ( 'NONE',  ( 0.000000000000000000, 0.000000000000000000, -1.000000000000000000 ) ) ;
#231 = CARTESIAN_POINT ( 'NONE',  ( -5.000000000000000000, 0.000000000000000000, 3.000000000000000000 ) ) ;
#232 = CARTESIAN_POINT ( 'NONE',  ( 0.000000000000000000, 0.000000000000000000, 3.199999999999980638 ) ) ;
#233 = CARTESIAN_POINT ( 'NONE',  ( -2.700000000000000178, 3.306546357697853733E-16, 2.999999999999990674 ) ) ;
#234 = EDGE_CURVE ( 'NONE', #197, #297, #43, .T. ) ;
#235 = AXIS2_PLACEMENT_3D ( 'NONE', #101, #36, #76 ) ;
#236 = CARTESIAN_POINT ( 'NONE',  ( 0.000000000000000000, 0.000000000000000000, 3.000000000000000000 ) ) ;
#237 = PLANE ( 'NONE',  #159 ) ;
#238 = COORDINATED_UNIVERSAL_TIME_OFFSET ( 1, 0, .AHEAD. ) ;
#239 = ADVANCED_FACE ( 'NONE', ( #304 ), #109, .T. ) ;
#240 = PRODUCT_DEFINITION_FORMATION_WITH_SPECIFIED_SOURCE ( 'LIBOVOLNÝ', '', #267, .NOT_KNOWN. ) ;
#241 = DIRECTION ( 'NONE',  ( 0.000000000000000000, 0.000000000000000000, 1.000000000000000000 ) ) ;
#242 = PERSON_AND_ORGANIZATION_ROLE ( 'design_owner' ) ;
#243 = VERTEX_POINT ( 'NONE', #41 ) ;
#244 = DIRECTION ( 'NONE',  ( 1.000000000000000000, 0.000000000000000000, 0.000000000000000000 ) ) ;
#245 = CARTESIAN_POINT ( 'NONE',  ( 0.000000000000000000, 0.000000000000000000, 803.0000000000000000 ) ) ;
#246 = EDGE_LOOP ( 'NONE', ( #182, #229, #75, #248 ) ) ;
#247 = DIRECTION ( 'NONE',  ( 1.224646799147353207E-16, 1.000000000000000000, -0.000000000000000000 ) ) ;
#248 = ORIENTED_EDGE ( 'NONE', *, *, #234, .F. ) ;
#249 = EDGE_LOOP ( 'NONE', ( #56, #272, #201, #29 ) ) ;
#250 = EDGE_CURVE ( 'NONE', #153, #172, #306, .T. ) ;
#251 = CARTESIAN_POINT ( 'NONE',  ( 5.000000000000000000, 6.123233995736766282E-16, 0.000000000000000000 ) ) ;
#252 = CIRCLE ( 'NONE', #305, 0.2000000000000000944 ) ;
#253 = VECTOR ( 'NONE', #61, 1000.000000000000000 ) ;
#254 = CARTESIAN_POINT ( 'NONE',  ( 0.000000000000000000, 0.000000000000000000, 3.000000000000000000 ) ) ;
#255 = CC_DESIGN_PERSON_AND_ORGANIZATION_ASSIGNMENT ( #142, #97, ( #240 ) ) ;
#256 = DIRECTION ( 'NONE',  ( -0.000000000000000000, -0.000000000000000000, -1.000000000000000000 ) ) ;
#257 = FACE_OUTER_BOUND ( 'NONE', #150, .T. ) ;
#258 = CC_DESIGN_SECURITY_CLASSIFICATION ( #278, ( #240 ) ) ;
#259 = PLANE ( 'NONE',  #23 ) ;
#260 = ADVANCED_BREP_SHAPE_REPRESENTATION ( '85f9', ( #133, #179 ), #300 ) ;
#261 = APPROVAL_STATUS ( 'not_yet_approved' ) ;
#262 = EDGE_CURVE ( 'NONE', #174, #153, #138, .T. ) ;
#263 = AXIS2_PLACEMENT_3D ( 'NONE', #279, #165, #17 ) ;
#264 = EDGE_CURVE ( 'NONE', #197, #243, #291, .T. ) ;
#265 = APPROVAL_DATE_TIME ( #145, #82 ) ;
#266 = APPLICATION_PROTOCOL_DEFINITION ( 'international standard', 'config_control_design', 1994, #141 ) ;
#267 = PRODUCT ( '85f9', '85f9', '', ( #284 ) ) ;
#268 = ORIENTED_EDGE ( 'NONE', *, *, #134, .F. ) ;
#269 = CYLINDRICAL_SURFACE ( 'NONE', #73, 5.000000000000000000 ) ;
#270 = DIRECTION ( 'NONE',  ( -1.000000000000000000, 1.224646799147353207E-16, 0.000000000000000000 ) ) ;
#271 = AXIS2_PLACEMENT_3D ( 'NONE', #232, #64, #299 ) ;
#272 = ORIENTED_EDGE ( 'NONE', *, *, #134, .T. ) ;
#273 = VERTEX_POINT ( 'NONE', #233 ) ;
#274 = CC_DESIGN_PERSON_AND_ORGANIZATION_ASSIGNMENT ( #22, #287, ( #278 ) ) ;
#275 = ORIENTED_EDGE ( 'NONE', *, *, #102, .F. ) ;
#276 = LINE ( 'NONE', #98, #85 ) ;
#277 = DIRECTION ( 'NONE',  ( 1.000000000000000000, 0.000000000000000000, 0.000000000000000000 ) ) ;
#278 = SECURITY_CLASSIFICATION ( '', '', #44 ) ;
#279 = CARTESIAN_POINT ( 'NONE',  ( 0.000000000000000000, 0.000000000000000000, 3.000000000000000000 ) ) ;
#280 = CARTESIAN_POINT ( 'NONE',  ( -5.000000000000000000, 0.000000000000000000, 3.000000000000000000 ) ) ;
#281 = PERSON_AND_ORGANIZATION ( #72, #42 ) ;
#282 = ADVANCED_FACE ( 'NONE', ( #302 ), #190, .F. ) ;
#283 = DATE_AND_TIME ( #214, #206 ) ;
#284 = MECHANICAL_CONTEXT ( 'NONE', #141, 'mechanical' ) ;
#285 = AXIS2_PLACEMENT_3D ( 'NONE', #225, #83, #77 ) ;
#286 = CC_DESIGN_PERSON_AND_ORGANIZATION_ASSIGNMENT ( #48, #26, ( #70 ) ) ;
#287 = PERSON_AND_ORGANIZATION_ROLE ( 'classification_officer' ) ;
#288 = CALENDAR_DATE ( 2022, 7, 7 ) ;
#289 = EDGE_LOOP ( 'NONE', ( #275, #180, #52, #50 ) ) ;
#290 = CIRCLE ( 'NONE', #216, 5.000000000000000000 ) ;
#291 = CIRCLE ( 'NONE', #86, 2.500000000000000000 ) ;
#292 = CARTESIAN_POINT ( 'NONE',  ( 5.000000000000000000, 6.123233995736766282E-16, 3.000000000000000000 ) ) ;
#293 = PRODUCT_RELATED_PRODUCT_CATEGORY ( 'detail', '', ( #267 ) ) ;
#294 = ORIENTED_EDGE ( 'NONE', *, *, #18, .F. ) ;
#295 = CARTESIAN_POINT ( 'NONE',  ( -2.700000000000000178, 3.306546357697853733E-16, 3.199999999999980638 ) ) ;
#296 = DIRECTION ( 'NONE',  ( -0.000000000000000000, -0.000000000000000000, -1.000000000000000000 ) ) ;
#297 = VERTEX_POINT ( 'NONE', #108 ) ;
#298 = DIRECTION ( 'NONE',  ( -1.000000000000000000, 0.000000000000000000, 0.000000000000000000 ) ) ;
#299 = DIRECTION ( 'NONE',  ( 1.000000000000000000, 0.000000000000000000, 0.000000000000000000 ) ) ;
#300 =( GEOMETRIC_REPRESENTATION_CONTEXT ( 3 ) GLOBAL_UNCERTAINTY_ASSIGNED_CONTEXT ( ( #51 ) ) GLOBAL_UNIT_ASSIGNED_CONTEXT ( ( #187, #137, #2 ) ) REPRESENTATION_CONTEXT ( 'NONE', 'WORKASPACE' ) );
#301 = FACE_BOUND ( 'NONE', #199, .T. ) ;
#302 = FACE_OUTER_BOUND ( 'NONE', #128, .T. ) ;
#303 = CC_DESIGN_PERSON_AND_ORGANIZATION_ASSIGNMENT ( #90, #242, ( #267 ) ) ;
#304 = FACE_OUTER_BOUND ( 'NONE', #249, .T. ) ;
#305 = AXIS2_PLACEMENT_3D ( 'NONE', #7, #104, #230 ) ;
#306 = CIRCLE ( 'NONE', #136, 5.000000000000000000 ) ;
#307 = DIRECTION ( 'NONE',  ( 1.000000000000000000, 0.000000000000000000, 0.000000000000000000 ) ) ;
ENDSEC;
END-ISO-10303-21;
