ISO-10303-21;
HEADER;
FILE_DESCRIPTION (( 'STEP AP203' ),
    '1' );
FILE_NAME ('449f.STEP',
    '2022-07-07T10:30:47',
    ( '' ),
    ( '' ),
    'SwSTEP 2.0',
    'SolidWorks 2019',
    '' );
FILE_SCHEMA (( 'CONFIG_CONTROL_DESIGN' ));
ENDSEC;

DATA;
#1 = CIRCLE ( 'NONE', #197, 0.2000000000000000944 ) ;
#2 = LINE ( 'NONE', #5, #274 ) ;
#3 = CC_DESIGN_APPROVAL ( #129, ( #90 ) ) ;
#4 = AXIS2_PLACEMENT_3D ( 'NONE', #50, #66, #97 ) ;
#5 = CARTESIAN_POINT ( 'NONE',  ( -1.500000000000000222, 0.000000000000000000, 403.0000000000000000 ) ) ;
#6 = APPROVAL_PERSON_ORGANIZATION ( #126, #129, #72 ) ;
#7 = ORIENTED_EDGE ( 'NONE', *, *, #256, .F. ) ;
#8 = PERSON_AND_ORGANIZATION ( #231, #198 ) ;
#9 = ADVANCED_FACE ( 'NONE', ( #250 ), #189, .T. ) ;
#10 = EDGE_LOOP ( 'NONE', ( #7, #294, #38, #206 ) ) ;
#11 = AXIS2_PLACEMENT_3D ( 'NONE', #118, #45, #144 ) ;
#12 = DIRECTION ( 'NONE',  ( 1.000000000000000000, 0.000000000000000000, -0.000000000000000000 ) ) ;
#13 = AXIS2_PLACEMENT_3D ( 'NONE', #237, #58, #131 ) ;
#14 = EDGE_LOOP ( 'NONE', ( #37, #42, #57, #16 ) ) ;
#15 = VECTOR ( 'NONE', #170, 1000.000000000000000 ) ;
#16 = ORIENTED_EDGE ( 'NONE', *, *, #68, .T. ) ;
#17 = ORIENTED_EDGE ( 'NONE', *, *, #68, .F. ) ;
#18 = CC_DESIGN_DATE_AND_TIME_ASSIGNMENT ( #248, #207, ( #229 ) ) ;
#19 = ORIENTED_EDGE ( 'NONE', *, *, #142, .F. ) ;
#20 = APPLICATION_CONTEXT ( 'configuration controlled 3d designs of mechanical parts and assemblies' ) ;
#21 = CIRCLE ( 'NONE', #52, 3.000000000000000444 ) ;
#22 = DIRECTION ( 'NONE',  ( -1.000000000000000000, 0.000000000000000000, 0.000000000000000000 ) ) ;
#23 = DIRECTION ( 'NONE',  ( 1.000000000000000000, 0.000000000000000000, -0.000000000000000000 ) ) ;
#24 = FACE_OUTER_BOUND ( 'NONE', #14, .T. ) ;
#25 = FACE_OUTER_BOUND ( 'NONE', #249, .T. ) ;
#26 = EDGE_CURVE ( 'NONE', #73, #174, #166, .T. ) ;
#27 = DIRECTION ( 'NONE',  ( 1.000000000000000000, 0.000000000000000000, 0.000000000000000000 ) ) ;
#28 = APPROVAL_DATE_TIME ( #102, #119 ) ;
#29 = AXIS2_PLACEMENT_3D ( 'NONE', #98, #219, #243 ) ;
#30 = ADVANCED_FACE ( 'NONE', ( #112, #280 ), #93, .T. ) ;
#31 = APPROVAL_STATUS ( 'not_yet_approved' ) ;
#32 = COORDINATED_UNIVERSAL_TIME_OFFSET ( 1, 0, .AHEAD. ) ;
#33 = EDGE_LOOP ( 'NONE', ( #257, #217 ) ) ;
#34 = CC_DESIGN_DATE_AND_TIME_ASSIGNMENT ( #71, #155, ( #91 ) ) ;
#35 = AXIS2_PLACEMENT_3D ( 'NONE', #258, #192, #282 ) ;
#36 = PERSON_AND_ORGANIZATION_ROLE ( 'creator' ) ;
#37 = ORIENTED_EDGE ( 'NONE', *, *, #204, .F. ) ;
#38 = ORIENTED_EDGE ( 'NONE', *, *, #87, .T. ) ;
#39 = CARTESIAN_POINT ( 'NONE',  ( 0.000000000000000000, 0.000000000000000000, 3.000000000000000000 ) ) ;
#40 = VECTOR ( 'NONE', #116, 1000.000000000000000 ) ;
#41 = CARTESIAN_POINT ( 'NONE',  ( 0.000000000000000000, 0.000000000000000000, 3.000000000000000000 ) ) ;
#42 = ORIENTED_EDGE ( 'NONE', *, *, #138, .F. ) ;
#43 = CARTESIAN_POINT ( 'NONE',  ( -1.500000000000000222, 0.000000000000000000, 3.199999999999980638 ) ) ;
#44 = TOROIDAL_SURFACE ( 'NONE', #110, 1.700000000000000400, 0.2000000000000000111 ) ;
#45 = DIRECTION ( 'NONE',  ( 0.000000000000000000, 0.000000000000000000, 1.000000000000000000 ) ) ;
#46 = LINE ( 'NONE', #260, #85 ) ;
#47 = CARTESIAN_POINT ( 'NONE',  ( 1.700000000000000400, 0.000000000000000000, 2.999999999999990674 ) ) ;
#48 = DIRECTION ( 'NONE',  ( -0.000000000000000000, -0.000000000000000000, -1.000000000000000000 ) ) ;
#49 = CIRCLE ( 'NONE', #11, 3.000000000000000444 ) ;
#50 = CARTESIAN_POINT ( 'NONE',  ( 0.000000000000000000, 0.000000000000000000, 403.0000000000000000 ) ) ;
#51 = PERSON_AND_ORGANIZATION_ROLE ( 'classification_officer' ) ;
#52 = AXIS2_PLACEMENT_3D ( 'NONE', #172, #115, #264 ) ;
#53 = COORDINATED_UNIVERSAL_TIME_OFFSET ( 1, 0, .AHEAD. ) ;
#54 = VERTEX_POINT ( 'NONE', #300 ) ;
#55 = APPROVAL_ROLE ( '' ) ;
#56 = CALENDAR_DATE ( 2022, 7, 7 ) ;
#57 = ORIENTED_EDGE ( 'NONE', *, *, #297, .T. ) ;
#58 = DIRECTION ( 'NONE',  ( -0.000000000000000000, -0.000000000000000000, -1.000000000000000000 ) ) ;
#59 = CARTESIAN_POINT ( 'NONE',  ( 1.700000000000000400, 0.000000000000000000, 3.199999999999980638 ) ) ;
#60 = CIRCLE ( 'NONE', #101, 1.500000000000000222 ) ;
#61 = DIRECTION ( 'NONE',  ( 1.000000000000000000, 0.000000000000000000, 0.000000000000000000 ) ) ;
#62 = CC_DESIGN_APPROVAL ( #285, ( #229 ) ) ;
#63 = DIRECTION ( 'NONE',  ( -0.000000000000000000, -0.000000000000000000, -1.000000000000000000 ) ) ;
#64 = DIRECTION ( 'NONE',  ( 1.000000000000000000, 0.000000000000000000, 0.000000000000000000 ) ) ;
#65 = PRODUCT_RELATED_PRODUCT_CATEGORY ( 'detail', '', ( #302 ) ) ;
#66 = DIRECTION ( 'NONE',  ( -0.000000000000000000, -0.000000000000000000, -1.000000000000000000 ) ) ;
#67 = DIRECTION ( 'NONE',  ( 1.000000000000000000, 0.000000000000000000, 0.000000000000000000 ) ) ;
#68 = EDGE_CURVE ( 'NONE', #150, #113, #70, .T. ) ;
#69 = DIRECTION ( 'NONE',  ( 0.000000000000000000, 0.000000000000000000, 1.000000000000000000 ) ) ;
#70 = CIRCLE ( 'NONE', #223, 1.500000000000000222 ) ;
#71 = DATE_AND_TIME ( #291, #95 ) ;
#72 = APPROVAL_ROLE ( '' ) ;
#73 = VERTEX_POINT ( 'NONE', #86 ) ;
#74 = CIRCLE ( 'NONE', #290, 1.500000000000000222 ) ;
#75 = APPLICATION_CONTEXT ( 'configuration controlled 3d designs of mechanical parts and assemblies' ) ;
#76 = DATE_AND_TIME ( #79, #181 ) ;
#77 = ORIENTED_EDGE ( 'NONE', *, *, #256, .T. ) ;
#78 = AXIS2_PLACEMENT_3D ( 'NONE', #239, #48, #306 ) ;
#79 = CALENDAR_DATE ( 2022, 7, 7 ) ;
#80 = VERTEX_POINT ( 'NONE', #277 ) ;
#81 = EDGE_CURVE ( 'NONE', #174, #73, #278, .T. ) ;
#82 = VERTEX_POINT ( 'NONE', #276 ) ;
#83 = COORDINATED_UNIVERSAL_TIME_OFFSET ( 1, 0, .AHEAD. ) ;
#84 = ORIENTED_EDGE ( 'NONE', *, *, #244, .F. ) ;
#85 = VECTOR ( 'NONE', #120, 1000.000000000000000 ) ;
#86 = CARTESIAN_POINT ( 'NONE',  ( -1.700000000000000400, 2.081899558550500773E-16, 2.999999999999990674 ) ) ;
#87 = EDGE_CURVE ( 'NONE', #113, #174, #1, .T. ) ;
#88 = DIRECTION ( 'NONE',  ( 0.000000000000000000, 0.000000000000000000, 1.000000000000000000 ) ) ;
#89 = DIRECTION ( 'NONE',  ( 0.000000000000000000, 0.000000000000000000, 1.000000000000000000 ) ) ;
#90 = PRODUCT_DEFINITION_FORMATION_WITH_SPECIFIED_SOURCE ( 'LIBOVOLNÝ', '', #302, .NOT_KNOWN. ) ;
#91 = PRODUCT_DEFINITION ( 'NEZNÁMÝ', '', #90, #287 ) ;
#92 = DIRECTION ( 'NONE',  ( 0.000000000000000000, -1.000000000000000000, 0.000000000000000000 ) ) ;
#93 = PLANE ( 'NONE',  #284 ) ;
#94 = CARTESIAN_POINT ( 'NONE',  ( 0.000000000000000000, 0.000000000000000000, 0.000000000000000000 ) ) ;
#95 = LOCAL_TIME ( 12, 30, 47.00000000000000000, #288 ) ;
#96 = CARTESIAN_POINT ( 'NONE',  ( 3.000000000000000444, 3.673940397442060361E-16, 3.000000000000000000 ) ) ;
#97 = DIRECTION ( 'NONE',  ( -1.000000000000000000, 0.000000000000000000, 0.000000000000000000 ) ) ;
#98 = CARTESIAN_POINT ( 'NONE',  ( 0.000000000000000000, 0.000000000000000000, 3.199999999999980638 ) ) ;
#99 = CIRCLE ( 'NONE', #122, 1.500000000000000222 ) ;
#100 = CALENDAR_DATE ( 2022, 7, 7 ) ;
#101 = AXIS2_PLACEMENT_3D ( 'NONE', #186, #279, #64 ) ;
#102 = DATE_AND_TIME ( #100, #133 ) ;
#103 = CC_DESIGN_APPROVAL ( #119, ( #91 ) ) ;
#104 = ADVANCED_FACE ( 'NONE', ( #211 ), #135, .T. ) ;
#105 = APPROVAL_STATUS ( 'not_yet_approved' ) ;
#106 = APPROVAL_ROLE ( '' ) ;
#107 = ORIENTED_EDGE ( 'NONE', *, *, #142, .T. ) ;
#108 = CC_DESIGN_PERSON_AND_ORGANIZATION_ASSIGNMENT ( #286, #36, ( #91 ) ) ;
#109 = ORIENTED_EDGE ( 'NONE', *, *, #220, .F. ) ;
#110 = AXIS2_PLACEMENT_3D ( 'NONE', #145, #195, #221 ) ;
#111 = EDGE_LOOP ( 'NONE', ( #17, #77, #201, #180 ) ) ;
#112 = FACE_BOUND ( 'NONE', #33, .T. ) ;
#113 = VERTEX_POINT ( 'NONE', #301 ) ;
#114 = DIRECTION ( 'NONE',  ( 1.000000000000000000, 0.000000000000000000, 0.000000000000000000 ) ) ;
#115 = DIRECTION ( 'NONE',  ( 0.000000000000000000, 0.000000000000000000, 1.000000000000000000 ) ) ;
#116 = DIRECTION ( 'NONE',  ( -0.000000000000000000, -0.000000000000000000, -1.000000000000000000 ) ) ;
#117 = AXIS2_PLACEMENT_3D ( 'NONE', #41, #159, #22 ) ;
#118 = CARTESIAN_POINT ( 'NONE',  ( 0.000000000000000000, 0.000000000000000000, 3.000000000000000000 ) ) ;
#119 = APPROVAL ( #31, 'NEURÈENÝ' ) ;
#120 = DIRECTION ( 'NONE',  ( -0.000000000000000000, -0.000000000000000000, -1.000000000000000000 ) ) ;
#121 = PERSON_AND_ORGANIZATION ( #231, #198 ) ;
#122 = AXIS2_PLACEMENT_3D ( 'NONE', #281, #283, #67 ) ;
#123 = ORIENTED_EDGE ( 'NONE', *, *, #200, .F. ) ;
#124 = FACE_OUTER_BOUND ( 'NONE', #165, .T. ) ;
#125 = PERSON_AND_ORGANIZATION_ROLE ( 'design_owner' ) ;
#126 = PERSON_AND_ORGANIZATION ( #231, #198 ) ;
#127 = VERTEX_POINT ( 'NONE', #188 ) ;
#128 = APPLICATION_PROTOCOL_DEFINITION ( 'international standard', 'config_control_design', 1994, #20 ) ;
#129 = APPROVAL ( #105, 'NEURÈENÝ' ) ;
#130 = APPROVAL_DATE_TIME ( #136, #285 ) ;
#131 = DIRECTION ( 'NONE',  ( -1.000000000000000000, 0.000000000000000000, 0.000000000000000000 ) ) ;
#132 = CARTESIAN_POINT ( 'NONE',  ( 0.000000000000000000, 0.000000000000000000, 3.000000000000000000 ) ) ;
#133 = LOCAL_TIME ( 12, 30, 47.00000000000000000, #32 ) ;
#134 = MANIFOLD_SOLID_BREP ( 'Zaoblit1', #191 ) ;
#135 = CYLINDRICAL_SURFACE ( 'NONE', #117, 3.000000000000000444 ) ;
#136 = DATE_AND_TIME ( #213, #215 ) ;
#137 = ORIENTED_EDGE ( 'NONE', *, *, #216, .F. ) ;
#138 = EDGE_CURVE ( 'NONE', #82, #54, #74, .T. ) ;
#139 = CARTESIAN_POINT ( 'NONE',  ( 3.000000000000000444, 3.673940397442060361E-16, 0.000000000000000000 ) ) ;
#140 = APPROVAL_PERSON_ORGANIZATION ( #8, #119, #55 ) ;
#141 = DIRECTION ( 'NONE',  ( 0.000000000000000000, 0.000000000000000000, 1.000000000000000000 ) ) ;
#142 = EDGE_CURVE ( 'NONE', #80, #153, #160, .T. ) ;
#143 = UNCERTAINTY_MEASURE_WITH_UNIT (LENGTH_MEASURE( 1.000000000000000082E-05 ), #202, 'distance_accuracy_value', 'NONE');
#144 = DIRECTION ( 'NONE',  ( 1.000000000000000000, 0.000000000000000000, 0.000000000000000000 ) ) ;
#145 = CARTESIAN_POINT ( 'NONE',  ( 0.000000000000000000, 0.000000000000000000, 3.199999999999980638 ) ) ;
#146 = LINE ( 'NONE', #222, #40 ) ;
#147 = EDGE_CURVE ( 'NONE', #113, #150, #60, .T. ) ;
#148 = FACE_OUTER_BOUND ( 'NONE', #111, .T. ) ;
#149 =( NAMED_UNIT ( * ) PLANE_ANGLE_UNIT ( ) SI_UNIT ( $, .RADIAN. ) );
#150 = VERTEX_POINT ( 'NONE', #43 ) ;
#151 = PERSON_AND_ORGANIZATION ( #231, #198 ) ;
#152 = AXIS2_PLACEMENT_3D ( 'NONE', #246, #271, #232 ) ;
#153 = VERTEX_POINT ( 'NONE', #139 ) ;
#154 = PERSON_AND_ORGANIZATION ( #231, #198 ) ;
#155 = DATE_TIME_ROLE ( 'creation_date' ) ;
#156 = ADVANCED_BREP_SHAPE_REPRESENTATION ( '449f', ( #134, #152 ), #171 ) ;
#157 = CC_DESIGN_PERSON_AND_ORGANIZATION_ASSIGNMENT ( #175, #228, ( #90 ) ) ;
#158 = DIRECTION ( 'NONE',  ( 0.000000000000000000, 0.000000000000000000, -1.000000000000000000 ) ) ;
#159 = DIRECTION ( 'NONE',  ( -0.000000000000000000, -0.000000000000000000, -1.000000000000000000 ) ) ;
#160 = CIRCLE ( 'NONE', #203, 3.000000000000000444 ) ;
#161 = DIRECTION ( 'NONE',  ( -0.000000000000000000, -0.000000000000000000, -1.000000000000000000 ) ) ;
#162 = ADVANCED_FACE ( 'NONE', ( #238 ), #305, .T. ) ;
#163 = EDGE_LOOP ( 'NONE', ( #123, #275, #270, #109 ) ) ;
#164 = PERSON_AND_ORGANIZATION ( #231, #198 ) ;
#165 = EDGE_LOOP ( 'NONE', ( #19, #84 ) ) ;
#166 = CIRCLE ( 'NONE', #262, 1.700000000000000400 ) ;
#167 = CARTESIAN_POINT ( 'NONE',  ( 3.000000000000000444, 3.673940397442060361E-16, 3.000000000000000000 ) ) ;
#168 = CC_DESIGN_PERSON_AND_ORGANIZATION_ASSIGNMENT ( #154, #265, ( #90 ) ) ;
#169 = APPROVAL_PERSON_ORGANIZATION ( #164, #285, #106 ) ;
#170 = DIRECTION ( 'NONE',  ( -0.000000000000000000, -0.000000000000000000, -1.000000000000000000 ) ) ;
#171 =( GEOMETRIC_REPRESENTATION_CONTEXT ( 3 ) GLOBAL_UNCERTAINTY_ASSIGNED_CONTEXT ( ( #143 ) ) GLOBAL_UNIT_ASSIGNED_CONTEXT ( ( #202, #149, #178 ) ) REPRESENTATION_CONTEXT ( 'NONE', 'WORKASPACE' ) );
#172 = CARTESIAN_POINT ( 'NONE',  ( 0.000000000000000000, 0.000000000000000000, 3.000000000000000000 ) ) ;
#173 = PLANE ( 'NONE',  #303 ) ;
#174 = VERTEX_POINT ( 'NONE', #47 ) ;
#175 = PERSON_AND_ORGANIZATION ( #231, #198 ) ;
#176 = ORIENTED_EDGE ( 'NONE', *, *, #204, .T. ) ;
#177 = ORIENTED_EDGE ( 'NONE', *, *, #297, .F. ) ;
#178 =( NAMED_UNIT ( * ) SI_UNIT ( $, .STERADIAN. ) SOLID_ANGLE_UNIT ( ) );
#179 = ADVANCED_FACE ( 'NONE', ( #148 ), #44, .F. ) ;
#180 = ORIENTED_EDGE ( 'NONE', *, *, #87, .F. ) ;
#181 = LOCAL_TIME ( 12, 30, 47.00000000000000000, #53 ) ;
#182 = DIRECTION ( 'NONE',  ( 1.000000000000000000, 0.000000000000000000, 0.000000000000000000 ) ) ;
#183 = DIRECTION ( 'NONE',  ( 1.000000000000000000, 0.000000000000000000, 0.000000000000000000 ) ) ;
#184 = CC_DESIGN_PERSON_AND_ORGANIZATION_ASSIGNMENT ( #121, #51, ( #229 ) ) ;
#185 = APPROVAL_STATUS ( 'not_yet_approved' ) ;
#186 = CARTESIAN_POINT ( 'NONE',  ( 0.000000000000000000, 0.000000000000000000, 3.199999999999980638 ) ) ;
#187 = SHAPE_DEFINITION_REPRESENTATION ( #199, #156 ) ;
#188 = CARTESIAN_POINT ( 'NONE',  ( -3.000000000000000444, 0.000000000000000000, 3.000000000000000000 ) ) ;
#189 = CYLINDRICAL_SURFACE ( 'NONE', #13, 3.000000000000000444 ) ;
#190 = CC_DESIGN_PERSON_AND_ORGANIZATION_ASSIGNMENT ( #151, #125, ( #302 ) ) ;
#191 = CLOSED_SHELL ( 'NONE', ( #179, #162, #104, #9, #30, #307, #241, #292, #210 ) ) ;
#192 = DIRECTION ( 'NONE',  ( 1.224646799147353207E-16, 1.000000000000000000, -0.000000000000000000 ) ) ;
#193 = CIRCLE ( 'NONE', #35, 0.2000000000000000944 ) ;
#194 = DIRECTION ( 'NONE',  ( -0.000000000000000000, -0.000000000000000000, -1.000000000000000000 ) ) ;
#195 = DIRECTION ( 'NONE',  ( 0.000000000000000000, 0.000000000000000000, 1.000000000000000000 ) ) ;
#196 = PLANE ( 'NONE',  #268 ) ;
#197 = AXIS2_PLACEMENT_3D ( 'NONE', #59, #92, #158 ) ;
#198 = ORGANIZATION ( 'NEURÈENÝ', 'NEURÈENÝ', '' ) ;
#199 = PRODUCT_DEFINITION_SHAPE ( 'NONE', 'NONE',  #91 ) ;
#200 = EDGE_CURVE ( 'NONE', #209, #127, #21, .T. ) ;
#201 = ORIENTED_EDGE ( 'NONE', *, *, #81, .F. ) ;
#202 =( LENGTH_UNIT ( ) NAMED_UNIT ( * ) SI_UNIT ( .MILLI., .METRE. ) );
#203 = AXIS2_PLACEMENT_3D ( 'NONE', #236, #89, #114 ) ;
#204 = EDGE_CURVE ( 'NONE', #54, #113, #146, .T. ) ;
#205 = COORDINATED_UNIVERSAL_TIME_OFFSET ( 1, 0, .AHEAD. ) ;
#206 = ORIENTED_EDGE ( 'NONE', *, *, #26, .F. ) ;
#207 = DATE_TIME_ROLE ( 'classification_date' ) ;
#208 = CARTESIAN_POINT ( 'NONE',  ( 0.000000000000000000, 0.000000000000000000, 3.000000000000000000 ) ) ;
#209 = VERTEX_POINT ( 'NONE', #96 ) ;
#210 = ADVANCED_FACE ( 'NONE', ( #240 ), #293, .F. ) ;
#211 = FACE_OUTER_BOUND ( 'NONE', #163, .T. ) ;
#212 = AXIS2_PLACEMENT_3D ( 'NONE', #132, #63, #182 ) ;
#213 = CALENDAR_DATE ( 2022, 7, 7 ) ;
#214 = DIRECTION ( 'NONE',  ( 1.000000000000000000, 0.000000000000000000, -0.000000000000000000 ) ) ;
#215 = LOCAL_TIME ( 12, 30, 47.00000000000000000, #83 ) ;
#216 = EDGE_CURVE ( 'NONE', #54, #82, #99, .T. ) ;
#217 = ORIENTED_EDGE ( 'NONE', *, *, #26, .T. ) ;
#218 = CARTESIAN_POINT ( 'NONE',  ( 0.000000000000000000, 0.000000000000000000, 403.0000000000000000 ) ) ;
#219 = DIRECTION ( 'NONE',  ( 0.000000000000000000, 0.000000000000000000, 1.000000000000000000 ) ) ;
#220 = EDGE_CURVE ( 'NONE', #127, #80, #46, .T. ) ;
#221 = DIRECTION ( 'NONE',  ( 1.000000000000000000, 0.000000000000000000, 0.000000000000000000 ) ) ;
#222 = CARTESIAN_POINT ( 'NONE',  ( 1.500000000000000222, 1.836970198721030181E-16, 403.0000000000000000 ) ) ;
#223 = AXIS2_PLACEMENT_3D ( 'NONE', #299, #255, #304 ) ;
#224 = DIRECTION ( 'NONE',  ( 0.000000000000000000, 0.000000000000000000, 1.000000000000000000 ) ) ;
#225 = ORIENTED_EDGE ( 'NONE', *, *, #200, .T. ) ;
#226 = ORIENTED_EDGE ( 'NONE', *, *, #147, .T. ) ;
#227 = APPROVAL_DATE_TIME ( #76, #129 ) ;
#228 = PERSON_AND_ORGANIZATION_ROLE ( 'design_supplier' ) ;
#229 = SECURITY_CLASSIFICATION ( '', '', #266 ) ;
#230 = EDGE_LOOP ( 'NONE', ( #137, #176, #226, #177 ) ) ;
#231 = PERSON ( 'NEURÈENÝ', 'NEURÈENÝ', 'NEURÈENÝ', ('NEURÈENÝ'), ('NEURÈENÝ'), ('NEURÈENÝ') ) ;
#232 = DIRECTION ( 'NONE',  ( 1.000000000000000000, 0.000000000000000000, 0.000000000000000000 ) ) ;
#233 = ORIENTED_EDGE ( 'NONE', *, *, #220, .T. ) ;
#234 = CARTESIAN_POINT ( 'NONE',  ( 0.000000000000000000, 0.000000000000000000, 403.0000000000000000 ) ) ;
#235 = AXIS2_PLACEMENT_3D ( 'NONE', #94, #69, #27 ) ;
#236 = CARTESIAN_POINT ( 'NONE',  ( 0.000000000000000000, 0.000000000000000000, 0.000000000000000000 ) ) ;
#237 = CARTESIAN_POINT ( 'NONE',  ( 0.000000000000000000, 0.000000000000000000, 3.000000000000000000 ) ) ;
#238 = FACE_OUTER_BOUND ( 'NONE', #230, .T. ) ;
#239 = CARTESIAN_POINT ( 'NONE',  ( 0.000000000000000000, 0.000000000000000000, 403.0000000000000000 ) ) ;
#240 = FACE_OUTER_BOUND ( 'NONE', #10, .T. ) ;
#241 = ADVANCED_FACE ( 'NONE', ( #24 ), #242, .T. ) ;
#242 = CYLINDRICAL_SURFACE ( 'NONE', #4, 1.500000000000000222 ) ;
#243 = DIRECTION ( 'NONE',  ( 1.000000000000000000, 0.000000000000000000, 0.000000000000000000 ) ) ;
#244 = EDGE_CURVE ( 'NONE', #153, #80, #259, .T. ) ;
#245 = ORIENTED_EDGE ( 'NONE', *, *, #251, .F. ) ;
#246 = CARTESIAN_POINT ( 'NONE',  ( 0.000000000000000000, 0.000000000000000000, 0.000000000000000000 ) ) ;
#247 = ORIENTED_EDGE ( 'NONE', *, *, #261, .T. ) ;
#248 = DATE_AND_TIME ( #56, #298 ) ;
#249 = EDGE_LOOP ( 'NONE', ( #252, #273 ) ) ;
#250 = FACE_OUTER_BOUND ( 'NONE', #289, .T. ) ;
#251 = EDGE_CURVE ( 'NONE', #209, #153, #263, .T. ) ;
#252 = ORIENTED_EDGE ( 'NONE', *, *, #138, .T. ) ;
#253 = CC_DESIGN_SECURITY_CLASSIFICATION ( #229, ( #90 ) ) ;
#254 = DIRECTION ( 'NONE',  ( 0.000000000000000000, 0.000000000000000000, 1.000000000000000000 ) ) ;
#255 = DIRECTION ( 'NONE',  ( 0.000000000000000000, 0.000000000000000000, 1.000000000000000000 ) ) ;
#256 = EDGE_CURVE ( 'NONE', #150, #73, #193, .T. ) ;
#257 = ORIENTED_EDGE ( 'NONE', *, *, #81, .T. ) ;
#258 = CARTESIAN_POINT ( 'NONE',  ( -1.700000000000000400, 2.081899558550500773E-16, 3.199999999999980638 ) ) ;
#259 = CIRCLE ( 'NONE', #235, 3.000000000000000444 ) ;
#260 = CARTESIAN_POINT ( 'NONE',  ( -3.000000000000000444, 0.000000000000000000, 3.000000000000000000 ) ) ;
#261 = EDGE_CURVE ( 'NONE', #127, #209, #49, .T. ) ;
#262 = AXIS2_PLACEMENT_3D ( 'NONE', #208, #161, #61 ) ;
#263 = LINE ( 'NONE', #167, #15 ) ;
#264 = DIRECTION ( 'NONE',  ( 1.000000000000000000, 0.000000000000000000, 0.000000000000000000 ) ) ;
#265 = PERSON_AND_ORGANIZATION_ROLE ( 'creator' ) ;
#266 = SECURITY_CLASSIFICATION_LEVEL ( 'unclassified' ) ;
#267 = EDGE_LOOP ( 'NONE', ( #247, #225 ) ) ;
#268 = AXIS2_PLACEMENT_3D ( 'NONE', #218, #141, #23 ) ;
#269 = APPLICATION_PROTOCOL_DEFINITION ( 'international standard', 'config_control_design', 1994, #75 ) ;
#270 = ORIENTED_EDGE ( 'NONE', *, *, #244, .T. ) ;
#271 = DIRECTION ( 'NONE',  ( 0.000000000000000000, 0.000000000000000000, 1.000000000000000000 ) ) ;
#272 = MECHANICAL_CONTEXT ( 'NONE', #75, 'mechanical' ) ;
#273 = ORIENTED_EDGE ( 'NONE', *, *, #216, .T. ) ;
#274 = VECTOR ( 'NONE', #194, 1000.000000000000000 ) ;
#275 = ORIENTED_EDGE ( 'NONE', *, *, #251, .T. ) ;
#276 = CARTESIAN_POINT ( 'NONE',  ( -1.500000000000000222, 0.000000000000000000, 403.0000000000000000 ) ) ;
#277 = CARTESIAN_POINT ( 'NONE',  ( -3.000000000000000444, 0.000000000000000000, 0.000000000000000000 ) ) ;
#278 = CIRCLE ( 'NONE', #212, 1.700000000000000400 ) ;
#279 = DIRECTION ( 'NONE',  ( 0.000000000000000000, 0.000000000000000000, 1.000000000000000000 ) ) ;
#280 = FACE_OUTER_BOUND ( 'NONE', #267, .T. ) ;
#281 = CARTESIAN_POINT ( 'NONE',  ( 0.000000000000000000, 0.000000000000000000, 403.0000000000000000 ) ) ;
#282 = DIRECTION ( 'NONE',  ( -1.000000000000000000, 1.224646799147353207E-16, 0.000000000000000000 ) ) ;
#283 = DIRECTION ( 'NONE',  ( 0.000000000000000000, 0.000000000000000000, 1.000000000000000000 ) ) ;
#284 = AXIS2_PLACEMENT_3D ( 'NONE', #39, #254, #214 ) ;
#285 = APPROVAL ( #185, 'NEURÈENÝ' ) ;
#286 = PERSON_AND_ORGANIZATION ( #231, #198 ) ;
#287 = DESIGN_CONTEXT ( 'detailed design', #20, 'design' ) ;
#288 = COORDINATED_UNIVERSAL_TIME_OFFSET ( 1, 0, .AHEAD. ) ;
#289 = EDGE_LOOP ( 'NONE', ( #245, #296, #233, #107 ) ) ;
#290 = AXIS2_PLACEMENT_3D ( 'NONE', #234, #88, #183 ) ;
#291 = CALENDAR_DATE ( 2022, 7, 7 ) ;
#292 = ADVANCED_FACE ( 'NONE', ( #25 ), #196, .T. ) ;
#293 = TOROIDAL_SURFACE ( 'NONE', #29, 1.700000000000000400, 0.2000000000000000111 ) ;
#294 = ORIENTED_EDGE ( 'NONE', *, *, #147, .F. ) ;
#295 = CARTESIAN_POINT ( 'NONE',  ( 0.000000000000000000, 0.000000000000000000, 0.000000000000000000 ) ) ;
#296 = ORIENTED_EDGE ( 'NONE', *, *, #261, .F. ) ;
#297 = EDGE_CURVE ( 'NONE', #82, #150, #2, .T. ) ;
#298 = LOCAL_TIME ( 12, 30, 47.00000000000000000, #205 ) ;
#299 = CARTESIAN_POINT ( 'NONE',  ( 0.000000000000000000, 0.000000000000000000, 3.199999999999980638 ) ) ;
#300 = CARTESIAN_POINT ( 'NONE',  ( 1.500000000000000222, 1.836970198721030181E-16, 403.0000000000000000 ) ) ;
#301 = CARTESIAN_POINT ( 'NONE',  ( 1.500000000000000222, 1.836970198721030181E-16, 3.199999999999980638 ) ) ;
#302 = PRODUCT ( '449f', '449f', '', ( #272 ) ) ;
#303 = AXIS2_PLACEMENT_3D ( 'NONE', #295, #224, #12 ) ;
#304 = DIRECTION ( 'NONE',  ( 1.000000000000000000, 0.000000000000000000, 0.000000000000000000 ) ) ;
#305 = CYLINDRICAL_SURFACE ( 'NONE', #78, 1.500000000000000222 ) ;
#306 = DIRECTION ( 'NONE',  ( -1.000000000000000000, 0.000000000000000000, 0.000000000000000000 ) ) ;
#307 = ADVANCED_FACE ( 'NONE', ( #124 ), #173, .F. ) ;
ENDSEC;
END-ISO-10303-21;
