ISO-10303-21;
HEADER;
FILE_DESCRIPTION (( 'STEP AP203' ),
    '1' );
FILE_NAME ('979c.STEP',
    '2023-02-12T13:00:08',
    ( '' ),
    ( '' ),
    'SwSTEP 2.0',
    'SolidWorks 2019',
    '' );
FILE_SCHEMA (( 'CONFIG_CONTROL_DESIGN' ));
ENDSEC;

DATA;
#1 = COORDINATED_UNIVERSAL_TIME_OFFSET ( 1, 0, .AHEAD. ) ;
#2 = DIRECTION ( 'NONE',  ( 1.000000000000000000, 0.000000000000000000, -0.000000000000000000 ) ) ;
#3 = PERSON_AND_ORGANIZATION ( #249, #94 ) ;
#4 = EDGE_LOOP ( 'NONE', ( #190, #34 ) ) ;
#5 = CC_DESIGN_PERSON_AND_ORGANIZATION_ASSIGNMENT ( #58, #130, ( #51 ) ) ;
#6 = APPROVAL_DATE_TIME ( #67, #254 ) ;
#7 = CARTESIAN_POINT ( 'NONE',  ( 0.000000000000000000, 0.000000000000000000, 100.0000000000000000 ) ) ;
#8 = CIRCLE ( 'NONE', #85, 1.250000000000000000 ) ;
#9 = CYLINDRICAL_SURFACE ( 'NONE', #26, 1.250000000000000000 ) ;
#10 = CC_DESIGN_PERSON_AND_ORGANIZATION_ASSIGNMENT ( #186, #113, ( #44 ) ) ;
#11 = EDGE_CURVE ( 'NONE', #247, #92, #224, .T. ) ;
#12 = CARTESIAN_POINT ( 'NONE',  ( 0.000000000000000000, 0.000000000000000000, 0.000000000000000000 ) ) ;
#13 = CARTESIAN_POINT ( 'NONE',  ( 0.5500000000000000444, 6.735557395310442516E-17, 100.0000000000000000 ) ) ;
#14 = AXIS2_PLACEMENT_3D ( 'NONE', #118, #175, #83 ) ;
#15 =( NAMED_UNIT ( * ) SI_UNIT ( $, .STERADIAN. ) SOLID_ANGLE_UNIT ( ) );
#16 = PLANE ( 'NONE',  #245 ) ;
#17 = CC_DESIGN_APPROVAL ( #111, ( #44 ) ) ;
#18 = CC_DESIGN_PERSON_AND_ORGANIZATION_ASSIGNMENT ( #165, #236, ( #172 ) ) ;
#19 = FACE_OUTER_BOUND ( 'NONE', #4, .T. ) ;
#20 = CARTESIAN_POINT ( 'NONE',  ( -0.5500000000000000444, 0.000000000000000000, 1.199999999999999956 ) ) ;
#21 =( NAMED_UNIT ( * ) PLANE_ANGLE_UNIT ( ) SI_UNIT ( $, .RADIAN. ) );
#22 = ORIENTED_EDGE ( 'NONE', *, *, #182, .T. ) ;
#23 = CC_DESIGN_PERSON_AND_ORGANIZATION_ASSIGNMENT ( #184, #226, ( #171 ) ) ;
#24 = FACE_OUTER_BOUND ( 'NONE', #199, .T. ) ;
#25 = LINE ( 'NONE', #215, #137 ) ;
#26 = AXIS2_PLACEMENT_3D ( 'NONE', #161, #180, #52 ) ;
#27 = ORIENTED_EDGE ( 'NONE', *, *, #74, .F. ) ;
#28 = VERTEX_POINT ( 'NONE', #101 ) ;
#29 = DIRECTION ( 'NONE',  ( 1.000000000000000000, 0.000000000000000000, 0.000000000000000000 ) ) ;
#30 = AXIS2_PLACEMENT_3D ( 'NONE', #132, #150, #2 ) ;
#31 = DIRECTION ( 'NONE',  ( 1.000000000000000000, 0.000000000000000000, 0.000000000000000000 ) ) ;
#32 = ORIENTED_EDGE ( 'NONE', *, *, #131, .F. ) ;
#33 = SECURITY_CLASSIFICATION_LEVEL ( 'unclassified' ) ;
#34 = ORIENTED_EDGE ( 'NONE', *, *, #71, .T. ) ;
#35 = APPROVAL_DATE_TIME ( #191, #111 ) ;
#36 = FACE_OUTER_BOUND ( 'NONE', #47, .T. ) ;
#37 = EDGE_LOOP ( 'NONE', ( #138, #32, #154, #244 ) ) ;
#38 = CARTESIAN_POINT ( 'NONE',  ( -0.5500000000000000444, 0.000000000000000000, 100.0000000000000000 ) ) ;
#39 = ADVANCED_FACE ( 'NONE', ( #123 ), #159, .T. ) ;
#40 = CC_DESIGN_DATE_AND_TIME_ASSIGNMENT ( #62, #41, ( #172 ) ) ;
#41 = DATE_TIME_ROLE ( 'creation_date' ) ;
#42 = DIRECTION ( 'NONE',  ( -0.000000000000000000, -0.000000000000000000, -1.000000000000000000 ) ) ;
#43 = CALENDAR_DATE ( 2023, 12, 2 ) ;
#44 = SECURITY_CLASSIFICATION ( '', '', #33 ) ;
#45 = AXIS2_PLACEMENT_3D ( 'NONE', #66, #140, #105 ) ;
#46 = ADVANCED_FACE ( 'NONE', ( #72 ), #200, .T. ) ;
#47 = EDGE_LOOP ( 'NONE', ( #197, #217 ) ) ;
#48 = AXIS2_PLACEMENT_3D ( 'NONE', #193, #98, #195 ) ;
#49 = DIRECTION ( 'NONE',  ( 0.000000000000000000, 0.000000000000000000, 1.000000000000000000 ) ) ;
#50 = ORIENTED_EDGE ( 'NONE', *, *, #89, .T. ) ;
#51 = PRODUCT_DEFINITION_FORMATION_WITH_SPECIFIED_SOURCE ( 'LIBOVOLNÝ', '', #171, .NOT_KNOWN. ) ;
#52 = DIRECTION ( 'NONE',  ( -1.000000000000000000, 0.000000000000000000, 0.000000000000000000 ) ) ;
#53 = DIRECTION ( 'NONE',  ( -0.000000000000000000, -0.000000000000000000, -1.000000000000000000 ) ) ;
#54 = AXIS2_PLACEMENT_3D ( 'NONE', #88, #162, #250 ) ;
#55 = CARTESIAN_POINT ( 'NONE',  ( 0.000000000000000000, 0.000000000000000000, 1.199999999999999956 ) ) ;
#56 = LINE ( 'NONE', #146, #203 ) ;
#57 = EDGE_LOOP ( 'NONE', ( #210, #170 ) ) ;
#58 = PERSON_AND_ORGANIZATION ( #249, #94 ) ;
#59 = CC_DESIGN_PERSON_AND_ORGANIZATION_ASSIGNMENT ( #153, #82, ( #51 ) ) ;
#60 = DIRECTION ( 'NONE',  ( 0.000000000000000000, 0.000000000000000000, 1.000000000000000000 ) ) ;
#61 = PLANE ( 'NONE',  #30 ) ;
#62 = DATE_AND_TIME ( #43, #179 ) ;
#63 = DIRECTION ( 'NONE',  ( 1.000000000000000000, 0.000000000000000000, 0.000000000000000000 ) ) ;
#64 = EDGE_CURVE ( 'NONE', #142, #28, #8, .T. ) ;
#65 = CIRCLE ( 'NONE', #45, 1.250000000000000000 ) ;
#66 = CARTESIAN_POINT ( 'NONE',  ( 0.000000000000000000, 0.000000000000000000, 1.199999999999999956 ) ) ;
#67 = DATE_AND_TIME ( #168, #228 ) ;
#68 = CIRCLE ( 'NONE', #212, 0.5500000000000000444 ) ;
#69 = CARTESIAN_POINT ( 'NONE',  ( -0.5500000000000000444, 0.000000000000000000, 100.0000000000000000 ) ) ;
#70 = CARTESIAN_POINT ( 'NONE',  ( 0.000000000000000000, 0.000000000000000000, 0.000000000000000000 ) ) ;
#71 = EDGE_CURVE ( 'NONE', #194, #129, #65, .T. ) ;
#72 = FACE_OUTER_BOUND ( 'NONE', #221, .T. ) ;
#73 = APPLICATION_PROTOCOL_DEFINITION ( 'international standard', 'config_control_design', 1994, #100 ) ;
#74 = EDGE_CURVE ( 'NONE', #243, #247, #178, .T. ) ;
#75 = DIRECTION ( 'NONE',  ( 1.000000000000000000, 0.000000000000000000, -0.000000000000000000 ) ) ;
#76 = DIRECTION ( 'NONE',  ( 1.000000000000000000, 0.000000000000000000, 0.000000000000000000 ) ) ;
#77 = ORIENTED_EDGE ( 'NONE', *, *, #157, .T. ) ;
#78 = SHAPE_DEFINITION_REPRESENTATION ( #139, #198 ) ;
#79 = AXIS2_PLACEMENT_3D ( 'NONE', #222, #49, #29 ) ;
#80 = CARTESIAN_POINT ( 'NONE',  ( 0.000000000000000000, 0.000000000000000000, 0.000000000000000000 ) ) ;
#81 = CC_DESIGN_APPROVAL ( #254, ( #172 ) ) ;
#82 = PERSON_AND_ORGANIZATION_ROLE ( 'creator' ) ;
#83 = DIRECTION ( 'NONE',  ( -1.000000000000000000, 0.000000000000000000, 0.000000000000000000 ) ) ;
#84 = VERTEX_POINT ( 'NONE', #20 ) ;
#85 = AXIS2_PLACEMENT_3D ( 'NONE', #70, #242, #31 ) ;
#86 = CARTESIAN_POINT ( 'NONE',  ( 0.5500000000000000444, 6.735557395310442516E-17, 100.0000000000000000 ) ) ;
#87 = CARTESIAN_POINT ( 'NONE',  ( 0.000000000000000000, 0.000000000000000000, 1.199999999999999956 ) ) ;
#88 = CARTESIAN_POINT ( 'NONE',  ( 0.000000000000000000, 0.000000000000000000, 1.199999999999999956 ) ) ;
#89 = EDGE_CURVE ( 'NONE', #243, #84, #127, .T. ) ;
#90 = DATE_TIME_ROLE ( 'classification_date' ) ;
#91 = ADVANCED_FACE ( 'NONE', ( #24 ), #16, .T. ) ;
#92 = VERTEX_POINT ( 'NONE', #205 ) ;
#93 =( LENGTH_UNIT ( ) NAMED_UNIT ( * ) SI_UNIT ( .MILLI., .METRE. ) );
#94 = ORGANIZATION ( 'NEURÈENÝ', 'NEURÈENÝ', '' ) ;
#95 = ORIENTED_EDGE ( 'NONE', *, *, #122, .F. ) ;
#96 = CARTESIAN_POINT ( 'NONE',  ( 0.000000000000000000, 0.000000000000000000, 100.0000000000000000 ) ) ;
#97 = APPLICATION_PROTOCOL_DEFINITION ( 'international standard', 'config_control_design', 1994, #169 ) ;
#98 = DIRECTION ( 'NONE',  ( 0.000000000000000000, 0.000000000000000000, 1.000000000000000000 ) ) ;
#99 = CARTESIAN_POINT ( 'NONE',  ( 1.250000000000000000, 1.530808498934191571E-16, 1.199999999999999956 ) ) ;
#100 = APPLICATION_CONTEXT ( 'configuration controlled 3d designs of mechanical parts and assemblies' ) ;
#101 = CARTESIAN_POINT ( 'NONE',  ( -1.250000000000000000, 0.000000000000000000, 0.000000000000000000 ) ) ;
#102 = APPROVAL_ROLE ( '' ) ;
#103 = DIRECTION ( 'NONE',  ( -1.000000000000000000, 0.000000000000000000, 0.000000000000000000 ) ) ;
#104 = CIRCLE ( 'NONE', #156, 1.250000000000000000 ) ;
#105 = DIRECTION ( 'NONE',  ( 1.000000000000000000, 0.000000000000000000, 0.000000000000000000 ) ) ;
#106 = ORIENTED_EDGE ( 'NONE', *, *, #11, .T. ) ;
#107 = AXIS2_PLACEMENT_3D ( 'NONE', #87, #204, #76 ) ;
#108 = FACE_OUTER_BOUND ( 'NONE', #37, .T. ) ;
#109 = AXIS2_PLACEMENT_3D ( 'NONE', #7, #121, #103 ) ;
#110 = ORIENTED_EDGE ( 'NONE', *, *, #89, .F. ) ;
#111 = APPROVAL ( #209, 'NEURÈENÝ' ) ;
#112 = DATE_AND_TIME ( #189, #145 ) ;
#113 = PERSON_AND_ORGANIZATION_ROLE ( 'classification_officer' ) ;
#114 = CARTESIAN_POINT ( 'NONE',  ( 0.000000000000000000, 0.000000000000000000, 100.0000000000000000 ) ) ;
#115 = COORDINATED_UNIVERSAL_TIME_OFFSET ( 1, 0, .AHEAD. ) ;
#116 = EDGE_CURVE ( 'NONE', #84, #92, #220, .T. ) ;
#117 = ADVANCED_FACE ( 'NONE', ( #108 ), #252, .T. ) ;
#118 = CARTESIAN_POINT ( 'NONE',  ( 0.000000000000000000, 0.000000000000000000, 100.0000000000000000 ) ) ;
#119 = CC_DESIGN_APPROVAL ( #177, ( #51 ) ) ;
#120 = ORIENTED_EDGE ( 'NONE', *, *, #181, .T. ) ;
#121 = DIRECTION ( 'NONE',  ( -0.000000000000000000, -0.000000000000000000, -1.000000000000000000 ) ) ;
#122 = EDGE_CURVE ( 'NONE', #129, #28, #56, .T. ) ;
#123 = FACE_OUTER_BOUND ( 'NONE', #208, .T. ) ;
#124 = VECTOR ( 'NONE', #223, 1000.000000000000000 ) ;
#125 = MECHANICAL_CONTEXT ( 'NONE', #100, 'mechanical' ) ;
#126 = CARTESIAN_POINT ( 'NONE',  ( 0.000000000000000000, 0.000000000000000000, 1.199999999999999956 ) ) ;
#127 = LINE ( 'NONE', #38, #241 ) ;
#128 = DIRECTION ( 'NONE',  ( 1.000000000000000000, 0.000000000000000000, 0.000000000000000000 ) ) ;
#129 = VERTEX_POINT ( 'NONE', #227 ) ;
#130 = PERSON_AND_ORGANIZATION_ROLE ( 'design_supplier' ) ;
#131 = EDGE_CURVE ( 'NONE', #129, #194, #143, .T. ) ;
#132 = CARTESIAN_POINT ( 'NONE',  ( 0.000000000000000000, 0.000000000000000000, 0.000000000000000000 ) ) ;
#133 = CIRCLE ( 'NONE', #48, 0.5500000000000000444 ) ;
#134 = ADVANCED_FACE ( 'NONE', ( #36 ), #61, .F. ) ;
#135 = DIRECTION ( 'NONE',  ( 0.000000000000000000, 0.000000000000000000, 1.000000000000000000 ) ) ;
#136 = EDGE_CURVE ( 'NONE', #28, #142, #104, .T. ) ;
#137 = VECTOR ( 'NONE', #42, 1000.000000000000000 ) ;
#138 = ORIENTED_EDGE ( 'NONE', *, *, #157, .F. ) ;
#139 = PRODUCT_DEFINITION_SHAPE ( 'NONE', 'NONE',  #172 ) ;
#140 = DIRECTION ( 'NONE',  ( 0.000000000000000000, 0.000000000000000000, 1.000000000000000000 ) ) ;
#141 = DIRECTION ( 'NONE',  ( 0.000000000000000000, 0.000000000000000000, 1.000000000000000000 ) ) ;
#142 = VERTEX_POINT ( 'NONE', #192 ) ;
#143 = CIRCLE ( 'NONE', #149, 1.250000000000000000 ) ;
#144 = DIRECTION ( 'NONE',  ( -0.000000000000000000, -0.000000000000000000, -1.000000000000000000 ) ) ;
#145 = LOCAL_TIME ( 14, 0, 8.000000000000000000, #115 ) ;
#146 = CARTESIAN_POINT ( 'NONE',  ( -1.250000000000000000, 0.000000000000000000, 1.199999999999999956 ) ) ;
#147 = CALENDAR_DATE ( 2023, 12, 2 ) ;
#148 = PERSON_AND_ORGANIZATION ( #249, #94 ) ;
#149 = AXIS2_PLACEMENT_3D ( 'NONE', #55, #229, #128 ) ;
#150 = DIRECTION ( 'NONE',  ( 0.000000000000000000, 0.000000000000000000, 1.000000000000000000 ) ) ;
#151 = LOCAL_TIME ( 14, 0, 8.000000000000000000, #206 ) ;
#152 = CC_DESIGN_DATE_AND_TIME_ASSIGNMENT ( #214, #90, ( #44 ) ) ;
#153 = PERSON_AND_ORGANIZATION ( #249, #94 ) ;
#154 = ORIENTED_EDGE ( 'NONE', *, *, #122, .T. ) ;
#155 = CLOSED_SHELL ( 'NONE', ( #46, #246, #117, #255, #134, #39, #91 ) ) ;
#156 = AXIS2_PLACEMENT_3D ( 'NONE', #80, #135, #237 ) ;
#157 = EDGE_CURVE ( 'NONE', #194, #142, #25, .T. ) ;
#158 = DIRECTION ( 'NONE',  ( 0.000000000000000000, 0.000000000000000000, 1.000000000000000000 ) ) ;
#159 = CYLINDRICAL_SURFACE ( 'NONE', #109, 0.5500000000000000444 ) ;
#160 = LOCAL_TIME ( 14, 0, 8.000000000000000000, #231 ) ;
#161 = CARTESIAN_POINT ( 'NONE',  ( 0.000000000000000000, 0.000000000000000000, 1.199999999999999956 ) ) ;
#162 = DIRECTION ( 'NONE',  ( -0.000000000000000000, -0.000000000000000000, -1.000000000000000000 ) ) ;
#163 = EDGE_LOOP ( 'NONE', ( #188, #77, #238, #95 ) ) ;
#164 = AXIS2_PLACEMENT_3D ( 'NONE', #12, #158, #202 ) ;
#165 = PERSON_AND_ORGANIZATION ( #249, #94 ) ;
#166 = APPROVAL_STATUS ( 'not_yet_approved' ) ;
#167 = ORIENTED_EDGE ( 'NONE', *, *, #11, .F. ) ;
#168 = CALENDAR_DATE ( 2023, 12, 2 ) ;
#169 = APPLICATION_CONTEXT ( 'configuration controlled 3d designs of mechanical parts and assemblies' ) ;
#170 = ORIENTED_EDGE ( 'NONE', *, *, #182, .F. ) ;
#171 = PRODUCT ( '979c', '979c', '', ( #125 ) ) ;
#172 = PRODUCT_DEFINITION ( 'NEZNÁMÝ', '', #51, #183 ) ;
#173 = APPROVAL_DATE_TIME ( #112, #177 ) ;
#174 = ORIENTED_EDGE ( 'NONE', *, *, #74, .T. ) ;
#175 = DIRECTION ( 'NONE',  ( -0.000000000000000000, -0.000000000000000000, -1.000000000000000000 ) ) ;
#176 = CC_DESIGN_SECURITY_CLASSIFICATION ( #44, ( #51 ) ) ;
#177 = APPROVAL ( #166, 'NEURÈENÝ' ) ;
#178 = CIRCLE ( 'NONE', #79, 0.5500000000000000444 ) ;
#179 = LOCAL_TIME ( 14, 0, 8.000000000000000000, #216 ) ;
#180 = DIRECTION ( 'NONE',  ( -0.000000000000000000, -0.000000000000000000, -1.000000000000000000 ) ) ;
#181 = EDGE_CURVE ( 'NONE', #247, #243, #68, .T. ) ;
#182 = EDGE_CURVE ( 'NONE', #92, #84, #133, .T. ) ;
#183 = DESIGN_CONTEXT ( 'detailed design', #169, 'design' ) ;
#184 = PERSON_AND_ORGANIZATION ( #249, #94 ) ;
#185 = ORIENTED_EDGE ( 'NONE', *, *, #116, .T. ) ;
#186 = PERSON_AND_ORGANIZATION ( #249, #94 ) ;
#187 = FACE_BOUND ( 'NONE', #57, .T. ) ;
#188 = ORIENTED_EDGE ( 'NONE', *, *, #71, .F. ) ;
#189 = CALENDAR_DATE ( 2023, 12, 2 ) ;
#190 = ORIENTED_EDGE ( 'NONE', *, *, #131, .T. ) ;
#191 = DATE_AND_TIME ( #230, #151 ) ;
#192 = CARTESIAN_POINT ( 'NONE',  ( 1.250000000000000000, 1.530808498934191571E-16, 0.000000000000000000 ) ) ;
#193 = CARTESIAN_POINT ( 'NONE',  ( 0.000000000000000000, 0.000000000000000000, 1.199999999999999956 ) ) ;
#194 = VERTEX_POINT ( 'NONE', #99 ) ;
#195 = DIRECTION ( 'NONE',  ( 1.000000000000000000, 0.000000000000000000, 0.000000000000000000 ) ) ;
#196 = APPROVAL_PERSON_ORGANIZATION ( #3, #111, #211 ) ;
#197 = ORIENTED_EDGE ( 'NONE', *, *, #136, .F. ) ;
#198 = ADVANCED_BREP_SHAPE_REPRESENTATION ( '979c', ( #235, #164 ), #253 ) ;
#199 = EDGE_LOOP ( 'NONE', ( #174, #120 ) ) ;
#200 = CYLINDRICAL_SURFACE ( 'NONE', #14, 0.5500000000000000444 ) ;
#201 = APPROVAL_PERSON_ORGANIZATION ( #213, #254, #102 ) ;
#202 = DIRECTION ( 'NONE',  ( 1.000000000000000000, 0.000000000000000000, 0.000000000000000000 ) ) ;
#203 = VECTOR ( 'NONE', #144, 1000.000000000000000 ) ;
#204 = DIRECTION ( 'NONE',  ( 0.000000000000000000, 0.000000000000000000, 1.000000000000000000 ) ) ;
#205 = CARTESIAN_POINT ( 'NONE',  ( 0.5500000000000000444, 6.735557395310442516E-17, 1.199999999999999956 ) ) ;
#206 = COORDINATED_UNIVERSAL_TIME_OFFSET ( 1, 0, .AHEAD. ) ;
#207 = UNCERTAINTY_MEASURE_WITH_UNIT (LENGTH_MEASURE( 1.000000000000000082E-05 ), #93, 'distance_accuracy_value', 'NONE');
#208 = EDGE_LOOP ( 'NONE', ( #167, #27, #50, #185 ) ) ;
#209 = APPROVAL_STATUS ( 'not_yet_approved' ) ;
#210 = ORIENTED_EDGE ( 'NONE', *, *, #116, .F. ) ;
#211 = APPROVAL_ROLE ( '' ) ;
#212 = AXIS2_PLACEMENT_3D ( 'NONE', #114, #218, #63 ) ;
#213 = PERSON_AND_ORGANIZATION ( #249, #94 ) ;
#214 = DATE_AND_TIME ( #147, #160 ) ;
#215 = CARTESIAN_POINT ( 'NONE',  ( 1.250000000000000000, 1.530808498934191571E-16, 1.199999999999999956 ) ) ;
#216 = COORDINATED_UNIVERSAL_TIME_OFFSET ( 1, 0, .AHEAD. ) ;
#217 = ORIENTED_EDGE ( 'NONE', *, *, #64, .F. ) ;
#218 = DIRECTION ( 'NONE',  ( 0.000000000000000000, 0.000000000000000000, 1.000000000000000000 ) ) ;
#219 = FACE_OUTER_BOUND ( 'NONE', #163, .T. ) ;
#220 = CIRCLE ( 'NONE', #107, 0.5500000000000000444 ) ;
#221 = EDGE_LOOP ( 'NONE', ( #248, #106, #22, #110 ) ) ;
#222 = CARTESIAN_POINT ( 'NONE',  ( 0.000000000000000000, 0.000000000000000000, 100.0000000000000000 ) ) ;
#223 = DIRECTION ( 'NONE',  ( -0.000000000000000000, -0.000000000000000000, -1.000000000000000000 ) ) ;
#224 = LINE ( 'NONE', #13, #124 ) ;
#225 = DIRECTION ( 'NONE',  ( 1.000000000000000000, 0.000000000000000000, -0.000000000000000000 ) ) ;
#226 = PERSON_AND_ORGANIZATION_ROLE ( 'design_owner' ) ;
#227 = CARTESIAN_POINT ( 'NONE',  ( -1.250000000000000000, 0.000000000000000000, 1.199999999999999956 ) ) ;
#228 = LOCAL_TIME ( 14, 0, 8.000000000000000000, #1 ) ;
#229 = DIRECTION ( 'NONE',  ( 0.000000000000000000, 0.000000000000000000, 1.000000000000000000 ) ) ;
#230 = CALENDAR_DATE ( 2023, 12, 2 ) ;
#231 = COORDINATED_UNIVERSAL_TIME_OFFSET ( 1, 0, .AHEAD. ) ;
#232 = APPROVAL_ROLE ( '' ) ;
#233 = AXIS2_PLACEMENT_3D ( 'NONE', #126, #60, #75 ) ;
#234 = APPROVAL_STATUS ( 'not_yet_approved' ) ;
#235 = MANIFOLD_SOLID_BREP ( 'Pøidat vysunutím3', #155 ) ;
#236 = PERSON_AND_ORGANIZATION_ROLE ( 'creator' ) ;
#237 = DIRECTION ( 'NONE',  ( 1.000000000000000000, 0.000000000000000000, 0.000000000000000000 ) ) ;
#238 = ORIENTED_EDGE ( 'NONE', *, *, #64, .T. ) ;
#239 = APPROVAL_PERSON_ORGANIZATION ( #148, #177, #232 ) ;
#240 = PRODUCT_RELATED_PRODUCT_CATEGORY ( 'detail', '', ( #171 ) ) ;
#241 = VECTOR ( 'NONE', #53, 1000.000000000000000 ) ;
#242 = DIRECTION ( 'NONE',  ( 0.000000000000000000, 0.000000000000000000, 1.000000000000000000 ) ) ;
#243 = VERTEX_POINT ( 'NONE', #69 ) ;
#244 = ORIENTED_EDGE ( 'NONE', *, *, #136, .T. ) ;
#245 = AXIS2_PLACEMENT_3D ( 'NONE', #96, #141, #225 ) ;
#246 = ADVANCED_FACE ( 'NONE', ( #219 ), #9, .T. ) ;
#247 = VERTEX_POINT ( 'NONE', #86 ) ;
#248 = ORIENTED_EDGE ( 'NONE', *, *, #181, .F. ) ;
#249 = PERSON ( 'NEURÈENÝ', 'NEURÈENÝ', 'NEURÈENÝ', ('NEURÈENÝ'), ('NEURÈENÝ'), ('NEURÈENÝ') ) ;
#250 = DIRECTION ( 'NONE',  ( -1.000000000000000000, 0.000000000000000000, 0.000000000000000000 ) ) ;
#251 = PLANE ( 'NONE',  #233 ) ;
#252 = CYLINDRICAL_SURFACE ( 'NONE', #54, 1.250000000000000000 ) ;
#253 =( GEOMETRIC_REPRESENTATION_CONTEXT ( 3 ) GLOBAL_UNCERTAINTY_ASSIGNED_CONTEXT ( ( #207 ) ) GLOBAL_UNIT_ASSIGNED_CONTEXT ( ( #93, #21, #15 ) ) REPRESENTATION_CONTEXT ( 'NONE', 'WORKASPACE' ) );
#254 = APPROVAL ( #234, 'NEURÈENÝ' ) ;
#255 = ADVANCED_FACE ( 'NONE', ( #187, #19 ), #251, .T. ) ;
ENDSEC;
END-ISO-10303-21;
