ISO-10303-21;
HEADER;
FILE_DESCRIPTION (( 'STEP AP203' ),
    '1' );
FILE_NAME ('108e.STEP',
    '2023-02-12T10:52:20',
    ( '' ),
    ( '' ),
    'SwSTEP 2.0',
    'SolidWorks 2019',
    '' );
FILE_SCHEMA (( 'CONFIG_CONTROL_DESIGN' ));
ENDSEC;

DATA;
#1 = CYLINDRICAL_SURFACE ( 'NONE', #116, 11.00000000000000000 ) ;
#2 = EDGE_CURVE ( 'NONE', #165, #38, #172, .T. ) ;
#3 = CARTESIAN_POINT ( 'NONE',  ( 0.000000000000000000, 0.000000000000000000, 400.0000000000000000 ) ) ;
#4 = DIRECTION ( 'NONE',  ( 1.000000000000000000, 0.000000000000000000, 0.000000000000000000 ) ) ;
#5 = CARTESIAN_POINT ( 'NONE',  ( 0.000000000000000000, 0.000000000000000000, 7.000000000000000000 ) ) ;
#6 = DIRECTION ( 'NONE',  ( 0.000000000000000000, 0.000000000000000000, 1.000000000000000000 ) ) ;
#7 = APPLICATION_CONTEXT ( 'configuration controlled 3d designs of mechanical parts and assemblies' ) ;
#8 = DIRECTION ( 'NONE',  ( 0.000000000000000000, 0.000000000000000000, 1.000000000000000000 ) ) ;
#9 = EDGE_CURVE ( 'NONE', #134, #152, #236, .T. ) ;
#10 = FACE_OUTER_BOUND ( 'NONE', #46, .T. ) ;
#11 =( GEOMETRIC_REPRESENTATION_CONTEXT ( 3 ) GLOBAL_UNCERTAINTY_ASSIGNED_CONTEXT ( ( #19 ) ) GLOBAL_UNIT_ASSIGNED_CONTEXT ( ( #210, #54, #191 ) ) REPRESENTATION_CONTEXT ( 'NONE', 'WORKASPACE' ) );
#12 = PERSON_AND_ORGANIZATION ( #200, #33 ) ;
#13 = SHAPE_DEFINITION_REPRESENTATION ( #218, #187 ) ;
#14 = AXIS2_PLACEMENT_3D ( 'NONE', #220, #67, #138 ) ;
#15 = PERSON_AND_ORGANIZATION ( #200, #33 ) ;
#16 = LOCAL_TIME ( 11, 52, 20.00000000000000000, #91 ) ;
#17 = ORIENTED_EDGE ( 'NONE', *, *, #98, .F. ) ;
#18 = PRODUCT_DEFINITION ( 'NEZNÁMÝ', '', #154, #114 ) ;
#19 = UNCERTAINTY_MEASURE_WITH_UNIT (LENGTH_MEASURE( 1.000000000000000082E-05 ), #210, 'distance_accuracy_value', 'NONE');
#20 = ORIENTED_EDGE ( 'NONE', *, *, #149, .T. ) ;
#21 = ADVANCED_FACE ( 'NONE', ( #132 ), #77, .F. ) ;
#22 = FACE_OUTER_BOUND ( 'NONE', #63, .T. ) ;
#23 = VECTOR ( 'NONE', #60, 1000.000000000000000 ) ;
#24 = ORIENTED_EDGE ( 'NONE', *, *, #43, .T. ) ;
#25 = APPROVAL ( #253, 'NEURÈENÝ' ) ;
#26 = CARTESIAN_POINT ( 'NONE',  ( 0.000000000000000000, 0.000000000000000000, 0.000000000000000000 ) ) ;
#27 = FACE_BOUND ( 'NONE', #93, .T. ) ;
#28 = CARTESIAN_POINT ( 'NONE',  ( 0.000000000000000000, 0.000000000000000000, 400.0000000000000000 ) ) ;
#29 = AXIS2_PLACEMENT_3D ( 'NONE', #207, #182, #250 ) ;
#30 = APPROVAL ( #66, 'NEURÈENÝ' ) ;
#31 = CARTESIAN_POINT ( 'NONE',  ( -7.000000000000000888, 0.000000000000000000, 400.0000000000000000 ) ) ;
#32 = VECTOR ( 'NONE', #153, 1000.000000000000000 ) ;
#33 = ORGANIZATION ( 'NEURÈENÝ', 'NEURÈENÝ', '' ) ;
#34 = COORDINATED_UNIVERSAL_TIME_OFFSET ( 1, 0, .AHEAD. ) ;
#35 = CIRCLE ( 'NONE', #14, 11.00000000000000000 ) ;
#36 = CIRCLE ( 'NONE', #206, 11.00000000000000000 ) ;
#37 = CALENDAR_DATE ( 2023, 12, 2 ) ;
#38 = VERTEX_POINT ( 'NONE', #117 ) ;
#39 = AXIS2_PLACEMENT_3D ( 'NONE', #180, #6, #226 ) ;
#40 = EDGE_LOOP ( 'NONE', ( #212, #24, #84, #170 ) ) ;
#41 = LOCAL_TIME ( 11, 52, 20.00000000000000000, #34 ) ;
#42 = DIRECTION ( 'NONE',  ( 0.000000000000000000, 0.000000000000000000, 1.000000000000000000 ) ) ;
#43 = EDGE_CURVE ( 'NONE', #61, #165, #44, .T. ) ;
#44 = LINE ( 'NONE', #197, #32 ) ;
#45 = LINE ( 'NONE', #31, #119 ) ;
#46 = EDGE_LOOP ( 'NONE', ( #95, #56, #140, #255 ) ) ;
#47 = ADVANCED_FACE ( 'NONE', ( #195 ), #1, .T. ) ;
#48 = DIRECTION ( 'NONE',  ( 1.000000000000000000, 0.000000000000000000, 0.000000000000000000 ) ) ;
#49 = CARTESIAN_POINT ( 'NONE',  ( 0.000000000000000000, 0.000000000000000000, 7.000000000000000000 ) ) ;
#50 = CARTESIAN_POINT ( 'NONE',  ( 0.000000000000000000, 0.000000000000000000, 400.0000000000000000 ) ) ;
#51 = DIRECTION ( 'NONE',  ( 0.000000000000000000, 0.000000000000000000, 1.000000000000000000 ) ) ;
#52 = PERSON_AND_ORGANIZATION_ROLE ( 'classification_officer' ) ;
#53 = DATE_TIME_ROLE ( 'creation_date' ) ;
#54 =( NAMED_UNIT ( * ) PLANE_ANGLE_UNIT ( ) SI_UNIT ( $, .RADIAN. ) );
#55 = CALENDAR_DATE ( 2023, 12, 2 ) ;
#56 = ORIENTED_EDGE ( 'NONE', *, *, #9, .T. ) ;
#57 = ADVANCED_FACE ( 'NONE', ( #22 ), #97, .T. ) ;
#58 = CC_DESIGN_APPROVAL ( #30, ( #18 ) ) ;
#59 = EDGE_CURVE ( 'NONE', #235, #135, #45, .T. ) ;
#60 = DIRECTION ( 'NONE',  ( -0.000000000000000000, -0.000000000000000000, -1.000000000000000000 ) ) ;
#61 = VERTEX_POINT ( 'NONE', #204 ) ;
#62 = DIRECTION ( 'NONE',  ( -0.000000000000000000, -0.000000000000000000, -1.000000000000000000 ) ) ;
#63 = EDGE_LOOP ( 'NONE', ( #193, #159, #189, #155 ) ) ;
#64 = EDGE_CURVE ( 'NONE', #152, #135, #209, .T. ) ;
#65 = CYLINDRICAL_SURFACE ( 'NONE', #29, 11.00000000000000000 ) ;
#66 = APPROVAL_STATUS ( 'not_yet_approved' ) ;
#67 = DIRECTION ( 'NONE',  ( 0.000000000000000000, 0.000000000000000000, 1.000000000000000000 ) ) ;
#68 = EDGE_CURVE ( 'NONE', #110, #38, #224, .T. ) ;
#69 = DIRECTION ( 'NONE',  ( 1.000000000000000000, 0.000000000000000000, 0.000000000000000000 ) ) ;
#70 = PLANE ( 'NONE',  #99 ) ;
#71 = AXIS2_PLACEMENT_3D ( 'NONE', #49, #161, #143 ) ;
#72 = PERSON_AND_ORGANIZATION_ROLE ( 'design_supplier' ) ;
#73 = CALENDAR_DATE ( 2023, 12, 2 ) ;
#74 = DIRECTION ( 'NONE',  ( 1.000000000000000000, 0.000000000000000000, -0.000000000000000000 ) ) ;
#75 = DATE_AND_TIME ( #37, #41 ) ;
#76 = LOCAL_TIME ( 11, 52, 20.00000000000000000, #147 ) ;
#77 = PLANE ( 'NONE',  #194 ) ;
#78 = DIRECTION ( 'NONE',  ( 1.000000000000000000, 0.000000000000000000, 0.000000000000000000 ) ) ;
#79 = CIRCLE ( 'NONE', #223, 7.000000000000000888 ) ;
#80 = ORIENTED_EDGE ( 'NONE', *, *, #217, .T. ) ;
#81 = PRODUCT_RELATED_PRODUCT_CATEGORY ( 'detail', '', ( #113 ) ) ;
#82 = CARTESIAN_POINT ( 'NONE',  ( -7.000000000000000888, 0.000000000000000000, 400.0000000000000000 ) ) ;
#83 = DIRECTION ( 'NONE',  ( 1.000000000000000000, 0.000000000000000000, 0.000000000000000000 ) ) ;
#84 = ORIENTED_EDGE ( 'NONE', *, *, #2, .T. ) ;
#85 = DIRECTION ( 'NONE',  ( 1.000000000000000000, 0.000000000000000000, -0.000000000000000000 ) ) ;
#86 = CARTESIAN_POINT ( 'NONE',  ( 11.00000000000000000, 1.347111479062088405E-15, 0.000000000000000000 ) ) ;
#87 = CC_DESIGN_SECURITY_CLASSIFICATION ( #126, ( #154 ) ) ;
#88 = APPROVAL_STATUS ( 'not_yet_approved' ) ;
#89 = LOCAL_TIME ( 11, 52, 20.00000000000000000, #166 ) ;
#90 = CC_DESIGN_DATE_AND_TIME_ASSIGNMENT ( #186, #167, ( #126 ) ) ;
#91 = COORDINATED_UNIVERSAL_TIME_OFFSET ( 1, 0, .AHEAD. ) ;
#92 = AXIS2_PLACEMENT_3D ( 'NONE', #219, #213, #78 ) ;
#93 = EDGE_LOOP ( 'NONE', ( #120, #192 ) ) ;
#94 = EDGE_LOOP ( 'NONE', ( #17, #115 ) ) ;
#95 = ORIENTED_EDGE ( 'NONE', *, *, #149, .F. ) ;
#96 = AXIS2_PLACEMENT_3D ( 'NONE', #50, #158, #185 ) ;
#97 = CYLINDRICAL_SURFACE ( 'NONE', #160, 7.000000000000000888 ) ;
#98 = EDGE_CURVE ( 'NONE', #38, #165, #35, .T. ) ;
#99 = AXIS2_PLACEMENT_3D ( 'NONE', #222, #8, #85 ) ;
#100 = ORIENTED_EDGE ( 'NONE', *, *, #240, .T. ) ;
#101 = DIRECTION ( 'NONE',  ( 0.000000000000000000, 0.000000000000000000, 1.000000000000000000 ) ) ;
#102 = CARTESIAN_POINT ( 'NONE',  ( -11.00000000000000000, 0.000000000000000000, 7.000000000000000000 ) ) ;
#103 = PERSON_AND_ORGANIZATION_ROLE ( 'design_owner' ) ;
#104 = FACE_OUTER_BOUND ( 'NONE', #199, .T. ) ;
#105 = CARTESIAN_POINT ( 'NONE',  ( -7.000000000000000888, 0.000000000000000000, 7.000000000000000000 ) ) ;
#106 = CALENDAR_DATE ( 2023, 12, 2 ) ;
#107 = CC_DESIGN_PERSON_AND_ORGANIZATION_ASSIGNMENT ( #179, #103, ( #113 ) ) ;
#108 = CIRCLE ( 'NONE', #129, 7.000000000000000888 ) ;
#109 = PERSON_AND_ORGANIZATION ( #200, #33 ) ;
#110 = VERTEX_POINT ( 'NONE', #227 ) ;
#111 = EDGE_CURVE ( 'NONE', #235, #134, #79, .T. ) ;
#112 = DATE_AND_TIME ( #73, #16 ) ;
#113 = PRODUCT ( '108e', '108e', '', ( #184 ) ) ;
#114 = DESIGN_CONTEXT ( 'detailed design', #243, 'design' ) ;
#115 = ORIENTED_EDGE ( 'NONE', *, *, #2, .F. ) ;
#116 = AXIS2_PLACEMENT_3D ( 'NONE', #237, #215, #198 ) ;
#117 = CARTESIAN_POINT ( 'NONE',  ( -11.00000000000000000, 0.000000000000000000, 0.000000000000000000 ) ) ;
#118 = LOCAL_TIME ( 11, 52, 20.00000000000000000, #246 ) ;
#119 = VECTOR ( 'NONE', #247, 1000.000000000000000 ) ;
#120 = ORIENTED_EDGE ( 'NONE', *, *, #231, .F. ) ;
#121 = CARTESIAN_POINT ( 'NONE',  ( 7.000000000000000888, 8.572527594031474176E-16, 400.0000000000000000 ) ) ;
#122 = FACE_OUTER_BOUND ( 'NONE', #40, .T. ) ;
#123 = DIRECTION ( 'NONE',  ( 0.000000000000000000, 0.000000000000000000, 1.000000000000000000 ) ) ;
#124 = APPLICATION_PROTOCOL_DEFINITION ( 'international standard', 'config_control_design', 1994, #243 ) ;
#125 = DIRECTION ( 'NONE',  ( -0.000000000000000000, -0.000000000000000000, -1.000000000000000000 ) ) ;
#126 = SECURITY_CLASSIFICATION ( '', '', #128 ) ;
#127 = CARTESIAN_POINT ( 'NONE',  ( 7.000000000000000888, 8.572527594031474176E-16, 7.000000000000000000 ) ) ;
#128 = SECURITY_CLASSIFICATION_LEVEL ( 'unclassified' ) ;
#129 = AXIS2_PLACEMENT_3D ( 'NONE', #202, #141, #4 ) ;
#130 = APPROVAL_DATE_TIME ( #75, #25 ) ;
#131 = EDGE_LOOP ( 'NONE', ( #173, #174, #233, #148 ) ) ;
#132 = FACE_OUTER_BOUND ( 'NONE', #94, .T. ) ;
#133 = CC_DESIGN_PERSON_AND_ORGANIZATION_ASSIGNMENT ( #12, #52, ( #126 ) ) ;
#134 = VERTEX_POINT ( 'NONE', #208 ) ;
#135 = VERTEX_POINT ( 'NONE', #105 ) ;
#136 = CC_DESIGN_PERSON_AND_ORGANIZATION_ASSIGNMENT ( #232, #254, ( #18 ) ) ;
#137 = DIRECTION ( 'NONE',  ( 0.000000000000000000, 0.000000000000000000, 1.000000000000000000 ) ) ;
#138 = DIRECTION ( 'NONE',  ( 1.000000000000000000, 0.000000000000000000, 0.000000000000000000 ) ) ;
#139 = CIRCLE ( 'NONE', #96, 7.000000000000000888 ) ;
#140 = ORIENTED_EDGE ( 'NONE', *, *, #64, .T. ) ;
#141 = DIRECTION ( 'NONE',  ( 0.000000000000000000, 0.000000000000000000, 1.000000000000000000 ) ) ;
#142 = AXIS2_PLACEMENT_3D ( 'NONE', #248, #125, #242 ) ;
#143 = DIRECTION ( 'NONE',  ( 1.000000000000000000, 0.000000000000000000, 0.000000000000000000 ) ) ;
#144 = DATE_AND_TIME ( #55, #118 ) ;
#145 = APPROVAL_ROLE ( '' ) ;
#146 = CALENDAR_DATE ( 2023, 12, 2 ) ;
#147 = COORDINATED_UNIVERSAL_TIME_OFFSET ( 1, 0, .AHEAD. ) ;
#148 = ORIENTED_EDGE ( 'NONE', *, *, #98, .T. ) ;
#149 = EDGE_CURVE ( 'NONE', #134, #235, #139, .T. ) ;
#150 = APPROVAL_PERSON_ORGANIZATION ( #188, #25, #211 ) ;
#151 = CARTESIAN_POINT ( 'NONE',  ( 0.000000000000000000, 0.000000000000000000, 0.000000000000000000 ) ) ;
#152 = VERTEX_POINT ( 'NONE', #127 ) ;
#153 = DIRECTION ( 'NONE',  ( -0.000000000000000000, -0.000000000000000000, -1.000000000000000000 ) ) ;
#154 = PRODUCT_DEFINITION_FORMATION_WITH_SPECIFIED_SOURCE ( 'LIBOVOLNÝ', '', #113, .NOT_KNOWN. ) ;
#155 = ORIENTED_EDGE ( 'NONE', *, *, #231, .T. ) ;
#156 = CARTESIAN_POINT ( 'NONE',  ( 0.000000000000000000, 0.000000000000000000, 7.000000000000000000 ) ) ;
#157 = APPLICATION_PROTOCOL_DEFINITION ( 'international standard', 'config_control_design', 1994, #7 ) ;
#158 = DIRECTION ( 'NONE',  ( 0.000000000000000000, 0.000000000000000000, 1.000000000000000000 ) ) ;
#159 = ORIENTED_EDGE ( 'NONE', *, *, #111, .F. ) ;
#160 = AXIS2_PLACEMENT_3D ( 'NONE', #3, #62, #216 ) ;
#161 = DIRECTION ( 'NONE',  ( 0.000000000000000000, 0.000000000000000000, 1.000000000000000000 ) ) ;
#162 = CIRCLE ( 'NONE', #71, 11.00000000000000000 ) ;
#163 = CYLINDRICAL_SURFACE ( 'NONE', #142, 7.000000000000000888 ) ;
#164 = APPROVAL ( #88, 'NEURÈENÝ' ) ;
#165 = VERTEX_POINT ( 'NONE', #86 ) ;
#166 = COORDINATED_UNIVERSAL_TIME_OFFSET ( 1, 0, .AHEAD. ) ;
#167 = DATE_TIME_ROLE ( 'classification_date' ) ;
#168 = APPROVAL_DATE_TIME ( #144, #30 ) ;
#169 = APPROVAL_PERSON_ORGANIZATION ( #244, #30, #221 ) ;
#170 = ORIENTED_EDGE ( 'NONE', *, *, #68, .F. ) ;
#171 = EDGE_LOOP ( 'NONE', ( #214, #20 ) ) ;
#172 = CIRCLE ( 'NONE', #92, 11.00000000000000000 ) ;
#173 = ORIENTED_EDGE ( 'NONE', *, *, #43, .F. ) ;
#174 = ORIENTED_EDGE ( 'NONE', *, *, #217, .F. ) ;
#175 = ADVANCED_FACE ( 'NONE', ( #10 ), #163, .T. ) ;
#176 = VECTOR ( 'NONE', #203, 1000.000000000000000 ) ;
#177 = PLANE ( 'NONE',  #229 ) ;
#178 = APPROVAL_PERSON_ORGANIZATION ( #230, #164, #145 ) ;
#179 = PERSON_AND_ORGANIZATION ( #200, #33 ) ;
#180 = CARTESIAN_POINT ( 'NONE',  ( 0.000000000000000000, 0.000000000000000000, 7.000000000000000000 ) ) ;
#181 = CC_DESIGN_DATE_AND_TIME_ASSIGNMENT ( #190, #53, ( #18 ) ) ;
#182 = DIRECTION ( 'NONE',  ( -0.000000000000000000, -0.000000000000000000, -1.000000000000000000 ) ) ;
#183 = MANIFOLD_SOLID_BREP ( 'Pøidat vysunutím3', #241 ) ;
#184 = MECHANICAL_CONTEXT ( 'NONE', #7, 'mechanical' ) ;
#185 = DIRECTION ( 'NONE',  ( 1.000000000000000000, 0.000000000000000000, 0.000000000000000000 ) ) ;
#186 = DATE_AND_TIME ( #146, #76 ) ;
#187 = ADVANCED_BREP_SHAPE_REPRESENTATION ( '108e', ( #183, #249 ), #11 ) ;
#188 = PERSON_AND_ORGANIZATION ( #200, #33 ) ;
#189 = ORIENTED_EDGE ( 'NONE', *, *, #59, .T. ) ;
#190 = DATE_AND_TIME ( #106, #89 ) ;
#191 =( NAMED_UNIT ( * ) SI_UNIT ( $, .STERADIAN. ) SOLID_ANGLE_UNIT ( ) );
#192 = ORIENTED_EDGE ( 'NONE', *, *, #64, .F. ) ;
#193 = ORIENTED_EDGE ( 'NONE', *, *, #9, .F. ) ;
#194 = AXIS2_PLACEMENT_3D ( 'NONE', #151, #42, #239 ) ;
#195 = FACE_OUTER_BOUND ( 'NONE', #131, .T. ) ;
#196 = ADVANCED_FACE ( 'NONE', ( #122 ), #65, .T. ) ;
#197 = CARTESIAN_POINT ( 'NONE',  ( 11.00000000000000000, 1.347111479062088405E-15, 7.000000000000000000 ) ) ;
#198 = DIRECTION ( 'NONE',  ( -1.000000000000000000, 0.000000000000000000, 0.000000000000000000 ) ) ;
#199 = EDGE_LOOP ( 'NONE', ( #80, #100 ) ) ;
#200 = PERSON ( 'NEURÈENÝ', 'NEURÈENÝ', 'NEURÈENÝ', ('NEURÈENÝ'), ('NEURÈENÝ'), ('NEURÈENÝ') ) ;
#201 = ADVANCED_FACE ( 'NONE', ( #245 ), #70, .T. ) ;
#202 = CARTESIAN_POINT ( 'NONE',  ( 0.000000000000000000, 0.000000000000000000, 7.000000000000000000 ) ) ;
#203 = DIRECTION ( 'NONE',  ( -0.000000000000000000, -0.000000000000000000, -1.000000000000000000 ) ) ;
#204 = CARTESIAN_POINT ( 'NONE',  ( 11.00000000000000000, 1.347111479062088405E-15, 7.000000000000000000 ) ) ;
#205 = CC_DESIGN_PERSON_AND_ORGANIZATION_ASSIGNMENT ( #15, #234, ( #154 ) ) ;
#206 = AXIS2_PLACEMENT_3D ( 'NONE', #156, #137, #48 ) ;
#207 = CARTESIAN_POINT ( 'NONE',  ( 0.000000000000000000, 0.000000000000000000, 7.000000000000000000 ) ) ;
#208 = CARTESIAN_POINT ( 'NONE',  ( 7.000000000000000888, 8.572527594031474176E-16, 400.0000000000000000 ) ) ;
#209 = CIRCLE ( 'NONE', #39, 7.000000000000000888 ) ;
#210 =( LENGTH_UNIT ( ) NAMED_UNIT ( * ) SI_UNIT ( .MILLI., .METRE. ) );
#211 = APPROVAL_ROLE ( '' ) ;
#212 = ORIENTED_EDGE ( 'NONE', *, *, #240, .F. ) ;
#213 = DIRECTION ( 'NONE',  ( 0.000000000000000000, 0.000000000000000000, 1.000000000000000000 ) ) ;
#214 = ORIENTED_EDGE ( 'NONE', *, *, #111, .T. ) ;
#215 = DIRECTION ( 'NONE',  ( -0.000000000000000000, -0.000000000000000000, -1.000000000000000000 ) ) ;
#216 = DIRECTION ( 'NONE',  ( -1.000000000000000000, 0.000000000000000000, 0.000000000000000000 ) ) ;
#217 = EDGE_CURVE ( 'NONE', #110, #61, #162, .T. ) ;
#218 = PRODUCT_DEFINITION_SHAPE ( 'NONE', 'NONE',  #18 ) ;
#219 = CARTESIAN_POINT ( 'NONE',  ( 0.000000000000000000, 0.000000000000000000, 0.000000000000000000 ) ) ;
#220 = CARTESIAN_POINT ( 'NONE',  ( 0.000000000000000000, 0.000000000000000000, 0.000000000000000000 ) ) ;
#221 = APPROVAL_ROLE ( '' ) ;
#222 = CARTESIAN_POINT ( 'NONE',  ( 0.000000000000000000, 0.000000000000000000, 400.0000000000000000 ) ) ;
#223 = AXIS2_PLACEMENT_3D ( 'NONE', #28, #51, #69 ) ;
#224 = LINE ( 'NONE', #102, #176 ) ;
#225 = CC_DESIGN_APPROVAL ( #164, ( #126 ) ) ;
#226 = DIRECTION ( 'NONE',  ( 1.000000000000000000, 0.000000000000000000, 0.000000000000000000 ) ) ;
#227 = CARTESIAN_POINT ( 'NONE',  ( -11.00000000000000000, 0.000000000000000000, 7.000000000000000000 ) ) ;
#228 = CC_DESIGN_PERSON_AND_ORGANIZATION_ASSIGNMENT ( #109, #72, ( #154 ) ) ;
#229 = AXIS2_PLACEMENT_3D ( 'NONE', #5, #123, #74 ) ;
#230 = PERSON_AND_ORGANIZATION ( #200, #33 ) ;
#231 = EDGE_CURVE ( 'NONE', #135, #152, #108, .T. ) ;
#232 = PERSON_AND_ORGANIZATION ( #200, #33 ) ;
#233 = ORIENTED_EDGE ( 'NONE', *, *, #68, .T. ) ;
#234 = PERSON_AND_ORGANIZATION_ROLE ( 'creator' ) ;
#235 = VERTEX_POINT ( 'NONE', #82 ) ;
#236 = LINE ( 'NONE', #121, #23 ) ;
#237 = CARTESIAN_POINT ( 'NONE',  ( 0.000000000000000000, 0.000000000000000000, 7.000000000000000000 ) ) ;
#238 = CC_DESIGN_APPROVAL ( #25, ( #154 ) ) ;
#239 = DIRECTION ( 'NONE',  ( 1.000000000000000000, 0.000000000000000000, -0.000000000000000000 ) ) ;
#240 = EDGE_CURVE ( 'NONE', #61, #110, #36, .T. ) ;
#241 = CLOSED_SHELL ( 'NONE', ( #175, #196, #47, #251, #21, #57, #201 ) ) ;
#242 = DIRECTION ( 'NONE',  ( -1.000000000000000000, 0.000000000000000000, 0.000000000000000000 ) ) ;
#243 = APPLICATION_CONTEXT ( 'configuration controlled 3d designs of mechanical parts and assemblies' ) ;
#244 = PERSON_AND_ORGANIZATION ( #200, #33 ) ;
#245 = FACE_OUTER_BOUND ( 'NONE', #171, .T. ) ;
#246 = COORDINATED_UNIVERSAL_TIME_OFFSET ( 1, 0, .AHEAD. ) ;
#247 = DIRECTION ( 'NONE',  ( -0.000000000000000000, -0.000000000000000000, -1.000000000000000000 ) ) ;
#248 = CARTESIAN_POINT ( 'NONE',  ( 0.000000000000000000, 0.000000000000000000, 400.0000000000000000 ) ) ;
#249 = AXIS2_PLACEMENT_3D ( 'NONE', #26, #101, #83 ) ;
#250 = DIRECTION ( 'NONE',  ( -1.000000000000000000, 0.000000000000000000, 0.000000000000000000 ) ) ;
#251 = ADVANCED_FACE ( 'NONE', ( #27, #104 ), #177, .T. ) ;
#252 = APPROVAL_DATE_TIME ( #112, #164 ) ;
#253 = APPROVAL_STATUS ( 'not_yet_approved' ) ;
#254 = PERSON_AND_ORGANIZATION_ROLE ( 'creator' ) ;
#255 = ORIENTED_EDGE ( 'NONE', *, *, #59, .F. ) ;
ENDSEC;
END-ISO-10303-21;
