ISO-10303-21;
HEADER;
FILE_DESCRIPTION (( 'STEP AP203' ),
    '1' );
FILE_NAME ('24b2.STEP',
    '2023-02-12T12:45:48',
    ( '' ),
    ( '' ),
    'SwSTEP 2.0',
    'SolidWorks 2019',
    '' );
FILE_SCHEMA (( 'CONFIG_CONTROL_DESIGN' ));
ENDSEC;

DATA;
#1 = DIRECTION ( 'NONE',  ( -0.000000000000000000, -0.000000000000000000, -1.000000000000000000 ) ) ;
#2 = CARTESIAN_POINT ( 'NONE',  ( 0.000000000000000000, 0.000000000000000000, 3.000000000000000000 ) ) ;
#3 = PLANE ( 'NONE',  #96 ) ;
#4 = DIRECTION ( 'NONE',  ( 1.000000000000000000, 0.000000000000000000, -0.000000000000000000 ) ) ;
#5 = AXIS2_PLACEMENT_3D ( 'NONE', #144, #161, #222 ) ;
#6 = AXIS2_PLACEMENT_3D ( 'NONE', #150, #205, #239 ) ;
#7 = DIRECTION ( 'NONE',  ( 0.000000000000000000, 0.000000000000000000, 1.000000000000000000 ) ) ;
#8 = LINE ( 'NONE', #93, #26 ) ;
#9 = LOCAL_TIME ( 13, 45, 48.00000000000000000, #225 ) ;
#10 = AXIS2_PLACEMENT_3D ( 'NONE', #127, #159, #107 ) ;
#11 = CARTESIAN_POINT ( 'NONE',  ( 0.000000000000000000, 0.000000000000000000, 0.000000000000000000 ) ) ;
#12 = DIRECTION ( 'NONE',  ( 1.000000000000000000, 0.000000000000000000, 0.000000000000000000 ) ) ;
#13 = CALENDAR_DATE ( 2023, 12, 2 ) ;
#14 = SHAPE_DEFINITION_REPRESENTATION ( #141, #49 ) ;
#15 = VECTOR ( 'NONE', #30, 1000.000000000000000 ) ;
#16 = ORIENTED_EDGE ( 'NONE', *, *, #174, .T. ) ;
#17 = PERSON_AND_ORGANIZATION_ROLE ( 'design_supplier' ) ;
#18 = ORIENTED_EDGE ( 'NONE', *, *, #83, .T. ) ;
#19 = ORIENTED_EDGE ( 'NONE', *, *, #228, .F. ) ;
#20 = PRODUCT_DEFINITION_FORMATION_WITH_SPECIFIED_SOURCE ( 'LIBOVOLNÝ', '', #22, .NOT_KNOWN. ) ;
#21 = ORIENTED_EDGE ( 'NONE', *, *, #121, .T. ) ;
#22 = PRODUCT ( '24b2', '24b2', '', ( #243 ) ) ;
#23 = EDGE_CURVE ( 'NONE', #63, #137, #50, .T. ) ;
#24 = FACE_OUTER_BOUND ( 'NONE', #119, .T. ) ;
#25 = CARTESIAN_POINT ( 'NONE',  ( 0.000000000000000000, 0.000000000000000000, 3.000000000000000000 ) ) ;
#26 = VECTOR ( 'NONE', #204, 1000.000000000000000 ) ;
#27 = AXIS2_PLACEMENT_3D ( 'NONE', #2, #108, #46 ) ;
#28 = CYLINDRICAL_SURFACE ( 'NONE', #10, 1.500000000000000222 ) ;
#29 = CARTESIAN_POINT ( 'NONE',  ( 3.000000000000000444, 3.673940397442060361E-16, 3.000000000000000000 ) ) ;
#30 = DIRECTION ( 'NONE',  ( -0.000000000000000000, -0.000000000000000000, -1.000000000000000000 ) ) ;
#31 = ORGANIZATION ( 'NEURÈENÝ', 'NEURÈENÝ', '' ) ;
#32 = AXIS2_PLACEMENT_3D ( 'NONE', #130, #146, #12 ) ;
#33 = PERSON_AND_ORGANIZATION ( #193, #31 ) ;
#34 = EDGE_CURVE ( 'NONE', #194, #117, #195, .T. ) ;
#35 = DIRECTION ( 'NONE',  ( 1.000000000000000000, 0.000000000000000000, 0.000000000000000000 ) ) ;
#36 = CLOSED_SHELL ( 'NONE', ( #163, #111, #51, #223, #156, #182, #70 ) ) ;
#37 = APPLICATION_PROTOCOL_DEFINITION ( 'international standard', 'config_control_design', 1994, #94 ) ;
#38 = PERSON_AND_ORGANIZATION ( #193, #31 ) ;
#39 = ORIENTED_EDGE ( 'NONE', *, *, #34, .T. ) ;
#40 = PERSON_AND_ORGANIZATION ( #193, #31 ) ;
#41 = VERTEX_POINT ( 'NONE', #200 ) ;
#42 = PRODUCT_DEFINITION ( 'NEZNÁMÝ', '', #20, #54 ) ;
#43 = LOCAL_TIME ( 13, 45, 48.00000000000000000, #231 ) ;
#44 = DIRECTION ( 'NONE',  ( 1.000000000000000000, 0.000000000000000000, 0.000000000000000000 ) ) ;
#45 = DIRECTION ( 'NONE',  ( 0.000000000000000000, 0.000000000000000000, 1.000000000000000000 ) ) ;
#46 = DIRECTION ( 'NONE',  ( 1.000000000000000000, 0.000000000000000000, 0.000000000000000000 ) ) ;
#47 = VECTOR ( 'NONE', #184, 1000.000000000000000 ) ;
#48 = DIRECTION ( 'NONE',  ( 0.000000000000000000, 0.000000000000000000, 1.000000000000000000 ) ) ;
#49 = ADVANCED_BREP_SHAPE_REPRESENTATION ( '24b2', ( #235, #123 ), #87 ) ;
#50 = LINE ( 'NONE', #88, #56 ) ;
#51 = ADVANCED_FACE ( 'NONE', ( #106 ), #177, .T. ) ;
#52 = PLANE ( 'NONE',  #6 ) ;
#53 = PRODUCT_RELATED_PRODUCT_CATEGORY ( 'detail', '', ( #22 ) ) ;
#54 = DESIGN_CONTEXT ( 'detailed design', #94, 'design' ) ;
#55 = PERSON_AND_ORGANIZATION ( #193, #31 ) ;
#56 = VECTOR ( 'NONE', #65, 1000.000000000000000 ) ;
#57 = CALENDAR_DATE ( 2023, 12, 2 ) ;
#58 = SECURITY_CLASSIFICATION_LEVEL ( 'unclassified' ) ;
#59 = PERSON_AND_ORGANIZATION ( #193, #31 ) ;
#60 = APPLICATION_CONTEXT ( 'configuration controlled 3d designs of mechanical parts and assemblies' ) ;
#61 = APPROVAL ( #80, 'NEURÈENÝ' ) ;
#62 = EDGE_LOOP ( 'NONE', ( #19, #254 ) ) ;
#63 = VERTEX_POINT ( 'NONE', #89 ) ;
#64 = PLANE ( 'NONE',  #5 ) ;
#65 = DIRECTION ( 'NONE',  ( -0.000000000000000000, -0.000000000000000000, -1.000000000000000000 ) ) ;
#66 = LINE ( 'NONE', #218, #15 ) ;
#67 = DIRECTION ( 'NONE',  ( 0.000000000000000000, 0.000000000000000000, 1.000000000000000000 ) ) ;
#68 = LOCAL_TIME ( 13, 45, 48.00000000000000000, #210 ) ;
#69 = FACE_OUTER_BOUND ( 'NONE', #102, .T. ) ;
#70 = ADVANCED_FACE ( 'NONE', ( #105 ), #64, .T. ) ;
#71 = PERSON_AND_ORGANIZATION_ROLE ( 'creator' ) ;
#72 = PERSON_AND_ORGANIZATION ( #193, #31 ) ;
#73 = APPROVAL_PERSON_ORGANIZATION ( #38, #61, #213 ) ;
#74 =( LENGTH_UNIT ( ) NAMED_UNIT ( * ) SI_UNIT ( .MILLI., .METRE. ) );
#75 = DIRECTION ( 'NONE',  ( 0.000000000000000000, 0.000000000000000000, 1.000000000000000000 ) ) ;
#76 = COORDINATED_UNIVERSAL_TIME_OFFSET ( 1, 0, .AHEAD. ) ;
#77 = AXIS2_PLACEMENT_3D ( 'NONE', #175, #1, #147 ) ;
#78 = APPROVAL_DATE_TIME ( #112, #101 ) ;
#79 = EDGE_CURVE ( 'NONE', #41, #116, #203, .T. ) ;
#80 = APPROVAL_STATUS ( 'not_yet_approved' ) ;
#81 = ORIENTED_EDGE ( 'NONE', *, *, #255, .T. ) ;
#82 = ORIENTED_EDGE ( 'NONE', *, *, #174, .F. ) ;
#83 = EDGE_CURVE ( 'NONE', #63, #155, #248, .T. ) ;
#84 = CC_DESIGN_APPROVAL ( #172, ( #42 ) ) ;
#85 = CC_DESIGN_SECURITY_CLASSIFICATION ( #217, ( #20 ) ) ;
#86 = VERTEX_POINT ( 'NONE', #122 ) ;
#87 =( GEOMETRIC_REPRESENTATION_CONTEXT ( 3 ) GLOBAL_UNCERTAINTY_ASSIGNED_CONTEXT ( ( #206 ) ) GLOBAL_UNIT_ASSIGNED_CONTEXT ( ( #74, #186, #227 ) ) REPRESENTATION_CONTEXT ( 'NONE', 'WORKASPACE' ) );
#88 = CARTESIAN_POINT ( 'NONE',  ( -3.000000000000000444, 0.000000000000000000, 3.000000000000000000 ) ) ;
#89 = CARTESIAN_POINT ( 'NONE',  ( -3.000000000000000444, 0.000000000000000000, 3.000000000000000000 ) ) ;
#90 = CYLINDRICAL_SURFACE ( 'NONE', #179, 3.000000000000000444 ) ;
#91 = AXIS2_PLACEMENT_3D ( 'NONE', #234, #201, #92 ) ;
#92 = DIRECTION ( 'NONE',  ( -1.000000000000000000, 0.000000000000000000, 0.000000000000000000 ) ) ;
#93 = CARTESIAN_POINT ( 'NONE',  ( 3.000000000000000444, 3.673940397442060361E-16, 3.000000000000000000 ) ) ;
#94 = APPLICATION_CONTEXT ( 'configuration controlled 3d designs of mechanical parts and assemblies' ) ;
#95 = APPROVAL_PERSON_ORGANIZATION ( #209, #172, #244 ) ;
#96 = AXIS2_PLACEMENT_3D ( 'NONE', #181, #67, #4 ) ;
#97 = DIRECTION ( 'NONE',  ( 1.000000000000000000, 0.000000000000000000, 0.000000000000000000 ) ) ;
#98 = CALENDAR_DATE ( 2023, 12, 2 ) ;
#99 = EDGE_LOOP ( 'NONE', ( #136, #21, #39, #170 ) ) ;
#100 = APPROVAL_STATUS ( 'not_yet_approved' ) ;
#101 = APPROVAL ( #100, 'NEURÈENÝ' ) ;
#102 = EDGE_LOOP ( 'NONE', ( #167, #81, #115, #215 ) ) ;
#103 = ORIENTED_EDGE ( 'NONE', *, *, #245, .T. ) ;
#104 = CYLINDRICAL_SURFACE ( 'NONE', #77, 1.500000000000000222 ) ;
#105 = FACE_OUTER_BOUND ( 'NONE', #154, .T. ) ;
#106 = FACE_OUTER_BOUND ( 'NONE', #196, .T. ) ;
#107 = DIRECTION ( 'NONE',  ( -1.000000000000000000, 0.000000000000000000, 0.000000000000000000 ) ) ;
#108 = DIRECTION ( 'NONE',  ( 0.000000000000000000, 0.000000000000000000, 1.000000000000000000 ) ) ;
#109 = CALENDAR_DATE ( 2023, 12, 2 ) ;
#110 = CARTESIAN_POINT ( 'NONE',  ( -1.500000000000000222, 0.000000000000000000, 400.0000000000000000 ) ) ;
#111 = ADVANCED_FACE ( 'NONE', ( #69 ), #90, .T. ) ;
#112 = DATE_AND_TIME ( #98, #43 ) ;
#113 = ORIENTED_EDGE ( 'NONE', *, *, #121, .F. ) ;
#114 = COORDINATED_UNIVERSAL_TIME_OFFSET ( 1, 0, .AHEAD. ) ;
#115 = ORIENTED_EDGE ( 'NONE', *, *, #212, .T. ) ;
#116 = VERTEX_POINT ( 'NONE', #232 ) ;
#117 = VERTEX_POINT ( 'NONE', #198 ) ;
#118 = AXIS2_PLACEMENT_3D ( 'NONE', #128, #45, #219 ) ;
#119 = EDGE_LOOP ( 'NONE', ( #113, #157, #169, #16 ) ) ;
#120 = CARTESIAN_POINT ( 'NONE',  ( 0.000000000000000000, 0.000000000000000000, 3.000000000000000000 ) ) ;
#121 = EDGE_CURVE ( 'NONE', #116, #194, #66, .T. ) ;
#122 = CARTESIAN_POINT ( 'NONE',  ( 3.000000000000000444, 3.673940397442060361E-16, 0.000000000000000000 ) ) ;
#123 = AXIS2_PLACEMENT_3D ( 'NONE', #11, #75, #97 ) ;
#124 = DIRECTION ( 'NONE',  ( -1.000000000000000000, 0.000000000000000000, 0.000000000000000000 ) ) ;
#125 = CC_DESIGN_PERSON_AND_ORGANIZATION_ASSIGNMENT ( #40, #246, ( #20 ) ) ;
#126 = CC_DESIGN_APPROVAL ( #61, ( #217 ) ) ;
#127 = CARTESIAN_POINT ( 'NONE',  ( 0.000000000000000000, 0.000000000000000000, 400.0000000000000000 ) ) ;
#128 = CARTESIAN_POINT ( 'NONE',  ( 0.000000000000000000, 0.000000000000000000, 400.0000000000000000 ) ) ;
#129 = PERSON_AND_ORGANIZATION_ROLE ( 'design_owner' ) ;
#130 = CARTESIAN_POINT ( 'NONE',  ( 0.000000000000000000, 0.000000000000000000, 0.000000000000000000 ) ) ;
#131 = FACE_OUTER_BOUND ( 'NONE', #251, .T. ) ;
#132 = DIRECTION ( 'NONE',  ( 0.000000000000000000, 0.000000000000000000, 1.000000000000000000 ) ) ;
#133 = CC_DESIGN_PERSON_AND_ORGANIZATION_ASSIGNMENT ( #59, #17, ( #20 ) ) ;
#134 = DIRECTION ( 'NONE',  ( 0.000000000000000000, 0.000000000000000000, 1.000000000000000000 ) ) ;
#135 = DATE_TIME_ROLE ( 'classification_date' ) ;
#136 = ORIENTED_EDGE ( 'NONE', *, *, #245, .F. ) ;
#137 = VERTEX_POINT ( 'NONE', #145 ) ;
#138 = ORIENTED_EDGE ( 'NONE', *, *, #139, .T. ) ;
#139 = EDGE_CURVE ( 'NONE', #155, #63, #152, .T. ) ;
#140 = FACE_OUTER_BOUND ( 'NONE', #99, .T. ) ;
#141 = PRODUCT_DEFINITION_SHAPE ( 'NONE', 'NONE',  #42 ) ;
#142 = DIRECTION ( 'NONE',  ( 1.000000000000000000, 0.000000000000000000, 0.000000000000000000 ) ) ;
#143 = CC_DESIGN_PERSON_AND_ORGANIZATION_ASSIGNMENT ( #229, #166, ( #217 ) ) ;
#144 = CARTESIAN_POINT ( 'NONE',  ( 0.000000000000000000, 0.000000000000000000, 400.0000000000000000 ) ) ;
#145 = CARTESIAN_POINT ( 'NONE',  ( -3.000000000000000444, 0.000000000000000000, 0.000000000000000000 ) ) ;
#146 = DIRECTION ( 'NONE',  ( 0.000000000000000000, 0.000000000000000000, 1.000000000000000000 ) ) ;
#147 = DIRECTION ( 'NONE',  ( -1.000000000000000000, 0.000000000000000000, 0.000000000000000000 ) ) ;
#148 = CARTESIAN_POINT ( 'NONE',  ( 0.000000000000000000, 0.000000000000000000, 0.000000000000000000 ) ) ;
#149 = CC_DESIGN_DATE_AND_TIME_ASSIGNMENT ( #249, #135, ( #217 ) ) ;
#150 = CARTESIAN_POINT ( 'NONE',  ( 0.000000000000000000, 0.000000000000000000, 3.000000000000000000 ) ) ;
#151 = DATE_AND_TIME ( #13, #171 ) ;
#152 = CIRCLE ( 'NONE', #27, 3.000000000000000444 ) ;
#153 = AXIS2_PLACEMENT_3D ( 'NONE', #238, #48, #197 ) ;
#154 = EDGE_LOOP ( 'NONE', ( #192, #103 ) ) ;
#155 = VERTEX_POINT ( 'NONE', #29 ) ;
#156 = ADVANCED_FACE ( 'NONE', ( #224 ), #3, .F. ) ;
#157 = ORIENTED_EDGE ( 'NONE', *, *, #79, .F. ) ;
#158 = ORIENTED_EDGE ( 'NONE', *, *, #255, .F. ) ;
#159 = DIRECTION ( 'NONE',  ( -0.000000000000000000, -0.000000000000000000, -1.000000000000000000 ) ) ;
#160 = APPROVAL_PERSON_ORGANIZATION ( #72, #101, #189 ) ;
#161 = DIRECTION ( 'NONE',  ( 0.000000000000000000, 0.000000000000000000, 1.000000000000000000 ) ) ;
#162 = APPROVAL_DATE_TIME ( #151, #172 ) ;
#163 = ADVANCED_FACE ( 'NONE', ( #140 ), #28, .T. ) ;
#164 = DIRECTION ( 'NONE',  ( 1.000000000000000000, 0.000000000000000000, 0.000000000000000000 ) ) ;
#165 = APPLICATION_PROTOCOL_DEFINITION ( 'international standard', 'config_control_design', 1994, #60 ) ;
#166 = PERSON_AND_ORGANIZATION_ROLE ( 'classification_officer' ) ;
#167 = ORIENTED_EDGE ( 'NONE', *, *, #139, .F. ) ;
#168 = DATE_AND_TIME ( #57, #237 ) ;
#169 = ORIENTED_EDGE ( 'NONE', *, *, #202, .T. ) ;
#170 = ORIENTED_EDGE ( 'NONE', *, *, #202, .F. ) ;
#171 = LOCAL_TIME ( 13, 45, 48.00000000000000000, #76 ) ;
#172 = APPROVAL ( #187, 'NEURÈENÝ' ) ;
#173 = ORIENTED_EDGE ( 'NONE', *, *, #83, .F. ) ;
#174 = EDGE_CURVE ( 'NONE', #117, #194, #221, .T. ) ;
#175 = CARTESIAN_POINT ( 'NONE',  ( 0.000000000000000000, 0.000000000000000000, 400.0000000000000000 ) ) ;
#176 = DIRECTION ( 'NONE',  ( -0.000000000000000000, -0.000000000000000000, -1.000000000000000000 ) ) ;
#177 = CYLINDRICAL_SURFACE ( 'NONE', #91, 3.000000000000000444 ) ;
#178 = CARTESIAN_POINT ( 'NONE',  ( 0.000000000000000000, 0.000000000000000000, 3.000000000000000000 ) ) ;
#179 = AXIS2_PLACEMENT_3D ( 'NONE', #25, #176, #124 ) ;
#180 = CC_DESIGN_APPROVAL ( #101, ( #20 ) ) ;
#181 = CARTESIAN_POINT ( 'NONE',  ( 0.000000000000000000, 0.000000000000000000, 0.000000000000000000 ) ) ;
#182 = ADVANCED_FACE ( 'NONE', ( #24 ), #104, .T. ) ;
#183 = DATE_AND_TIME ( #109, #9 ) ;
#184 = DIRECTION ( 'NONE',  ( -0.000000000000000000, -0.000000000000000000, -1.000000000000000000 ) ) ;
#185 = CC_DESIGN_PERSON_AND_ORGANIZATION_ASSIGNMENT ( #55, #129, ( #22 ) ) ;
#186 =( NAMED_UNIT ( * ) PLANE_ANGLE_UNIT ( ) SI_UNIT ( $, .RADIAN. ) );
#187 = APPROVAL_STATUS ( 'not_yet_approved' ) ;
#188 = CARTESIAN_POINT ( 'NONE',  ( 0.000000000000000000, 0.000000000000000000, 400.0000000000000000 ) ) ;
#189 = APPROVAL_ROLE ( '' ) ;
#190 = AXIS2_PLACEMENT_3D ( 'NONE', #188, #132, #164 ) ;
#191 = CALENDAR_DATE ( 2023, 12, 2 ) ;
#192 = ORIENTED_EDGE ( 'NONE', *, *, #79, .T. ) ;
#193 = PERSON ( 'NEURÈENÝ', 'NEURÈENÝ', 'NEURÈENÝ', ('NEURÈENÝ'), ('NEURÈENÝ'), ('NEURÈENÝ') ) ;
#194 = VERTEX_POINT ( 'NONE', #207 ) ;
#195 = CIRCLE ( 'NONE', #233, 1.500000000000000222 ) ;
#196 = EDGE_LOOP ( 'NONE', ( #158, #173, #216, #253 ) ) ;
#197 = DIRECTION ( 'NONE',  ( 1.000000000000000000, 0.000000000000000000, 0.000000000000000000 ) ) ;
#198 = CARTESIAN_POINT ( 'NONE',  ( -1.500000000000000222, 0.000000000000000000, 3.000000000000000000 ) ) ;
#199 = DIRECTION ( 'NONE',  ( 0.000000000000000000, 0.000000000000000000, 1.000000000000000000 ) ) ;
#200 = CARTESIAN_POINT ( 'NONE',  ( -1.500000000000000222, 0.000000000000000000, 400.0000000000000000 ) ) ;
#201 = DIRECTION ( 'NONE',  ( -0.000000000000000000, -0.000000000000000000, -1.000000000000000000 ) ) ;
#202 = EDGE_CURVE ( 'NONE', #41, #117, #242, .T. ) ;
#203 = CIRCLE ( 'NONE', #118, 1.500000000000000222 ) ;
#204 = DIRECTION ( 'NONE',  ( -0.000000000000000000, -0.000000000000000000, -1.000000000000000000 ) ) ;
#205 = DIRECTION ( 'NONE',  ( 0.000000000000000000, 0.000000000000000000, 1.000000000000000000 ) ) ;
#206 = UNCERTAINTY_MEASURE_WITH_UNIT (LENGTH_MEASURE( 1.000000000000000082E-05 ), #74, 'distance_accuracy_value', 'NONE');
#207 = CARTESIAN_POINT ( 'NONE',  ( 1.500000000000000222, 1.836970198721030181E-16, 3.000000000000000000 ) ) ;
#208 = AXIS2_PLACEMENT_3D ( 'NONE', #178, #7, #44 ) ;
#209 = PERSON_AND_ORGANIZATION ( #193, #31 ) ;
#210 = COORDINATED_UNIVERSAL_TIME_OFFSET ( 1, 0, .AHEAD. ) ;
#211 = EDGE_LOOP ( 'NONE', ( #82, #230 ) ) ;
#212 = EDGE_CURVE ( 'NONE', #86, #137, #252, .T. ) ;
#213 = APPROVAL_ROLE ( '' ) ;
#214 = CC_DESIGN_DATE_AND_TIME_ASSIGNMENT ( #183, #240, ( #42 ) ) ;
#215 = ORIENTED_EDGE ( 'NONE', *, *, #23, .F. ) ;
#216 = ORIENTED_EDGE ( 'NONE', *, *, #23, .T. ) ;
#217 = SECURITY_CLASSIFICATION ( '', '', #58 ) ;
#218 = CARTESIAN_POINT ( 'NONE',  ( 1.500000000000000222, 1.836970198721030181E-16, 400.0000000000000000 ) ) ;
#219 = DIRECTION ( 'NONE',  ( 1.000000000000000000, 0.000000000000000000, 0.000000000000000000 ) ) ;
#220 = AXIS2_PLACEMENT_3D ( 'NONE', #148, #134, #35 ) ;
#221 = CIRCLE ( 'NONE', #208, 1.500000000000000222 ) ;
#222 = DIRECTION ( 'NONE',  ( 1.000000000000000000, 0.000000000000000000, -0.000000000000000000 ) ) ;
#223 = ADVANCED_FACE ( 'NONE', ( #226, #131 ), #52, .T. ) ;
#224 = FACE_OUTER_BOUND ( 'NONE', #62, .T. ) ;
#225 = COORDINATED_UNIVERSAL_TIME_OFFSET ( 1, 0, .AHEAD. ) ;
#226 = FACE_BOUND ( 'NONE', #211, .T. ) ;
#227 =( NAMED_UNIT ( * ) SI_UNIT ( $, .STERADIAN. ) SOLID_ANGLE_UNIT ( ) );
#228 = EDGE_CURVE ( 'NONE', #137, #86, #241, .T. ) ;
#229 = PERSON_AND_ORGANIZATION ( #193, #31 ) ;
#230 = ORIENTED_EDGE ( 'NONE', *, *, #34, .F. ) ;
#231 = COORDINATED_UNIVERSAL_TIME_OFFSET ( 1, 0, .AHEAD. ) ;
#232 = CARTESIAN_POINT ( 'NONE',  ( 1.500000000000000222, 1.836970198721030181E-16, 400.0000000000000000 ) ) ;
#233 = AXIS2_PLACEMENT_3D ( 'NONE', #120, #199, #142 ) ;
#234 = CARTESIAN_POINT ( 'NONE',  ( 0.000000000000000000, 0.000000000000000000, 3.000000000000000000 ) ) ;
#235 = MANIFOLD_SOLID_BREP ( 'Pøidat vysunutím3', #36 ) ;
#236 = CC_DESIGN_PERSON_AND_ORGANIZATION_ASSIGNMENT ( #33, #71, ( #42 ) ) ;
#237 = LOCAL_TIME ( 13, 45, 48.00000000000000000, #114 ) ;
#238 = CARTESIAN_POINT ( 'NONE',  ( 0.000000000000000000, 0.000000000000000000, 3.000000000000000000 ) ) ;
#239 = DIRECTION ( 'NONE',  ( 1.000000000000000000, 0.000000000000000000, -0.000000000000000000 ) ) ;
#240 = DATE_TIME_ROLE ( 'creation_date' ) ;
#241 = CIRCLE ( 'NONE', #220, 3.000000000000000444 ) ;
#242 = LINE ( 'NONE', #110, #47 ) ;
#243 = MECHANICAL_CONTEXT ( 'NONE', #60, 'mechanical' ) ;
#244 = APPROVAL_ROLE ( '' ) ;
#245 = EDGE_CURVE ( 'NONE', #116, #41, #247, .T. ) ;
#246 = PERSON_AND_ORGANIZATION_ROLE ( 'creator' ) ;
#247 = CIRCLE ( 'NONE', #190, 1.500000000000000222 ) ;
#248 = CIRCLE ( 'NONE', #153, 3.000000000000000444 ) ;
#249 = DATE_AND_TIME ( #191, #68 ) ;
#250 = APPROVAL_DATE_TIME ( #168, #61 ) ;
#251 = EDGE_LOOP ( 'NONE', ( #18, #138 ) ) ;
#252 = CIRCLE ( 'NONE', #32, 3.000000000000000444 ) ;
#253 = ORIENTED_EDGE ( 'NONE', *, *, #228, .T. ) ;
#254 = ORIENTED_EDGE ( 'NONE', *, *, #212, .F. ) ;
#255 = EDGE_CURVE ( 'NONE', #155, #86, #8, .T. ) ;
ENDSEC;
END-ISO-10303-21;
