ISO-10303-21;
HEADER;
FILE_DESCRIPTION (( 'STEP AP203' ),
    '1' );
FILE_NAME ('1819.STEP',
    '2022-07-07T09:44:56',
    ( '' ),
    ( '' ),
    'SwSTEP 2.0',
    'SolidWorks 2019',
    '' );
FILE_SCHEMA (( 'CONFIG_CONTROL_DESIGN' ));
ENDSEC;

DATA;
#1 = PERSON_AND_ORGANIZATION_ROLE ( 'design_supplier' ) ;
#2 = AXIS2_PLACEMENT_3D ( 'NONE', #111, #80, #289 ) ;
#3 = APPLICATION_PROTOCOL_DEFINITION ( 'international standard', 'config_control_design', 1994, #123 ) ;
#4 = CARTESIAN_POINT ( 'NONE',  ( 0.000000000000000000, 0.000000000000000000, 7.000000000000000000 ) ) ;
#5 = CC_DESIGN_PERSON_AND_ORGANIZATION_ASSIGNMENT ( #238, #120, ( #93 ) ) ;
#6 = DIRECTION ( 'NONE',  ( 0.000000000000000000, 0.000000000000000000, 1.000000000000000000 ) ) ;
#7 = DIRECTION ( 'NONE',  ( -1.000000000000000000, 0.000000000000000000, 0.000000000000000000 ) ) ;
#8 = EDGE_LOOP ( 'NONE', ( #33, #274, #62, #222 ) ) ;
#9 = CARTESIAN_POINT ( 'NONE',  ( 0.000000000000000000, 0.000000000000000000, 7.000000000000000000 ) ) ;
#10 = ORIENTED_EDGE ( 'NONE', *, *, #171, .T. ) ;
#11 = ORIENTED_EDGE ( 'NONE', *, *, #194, .F. ) ;
#12 = CIRCLE ( 'NONE', #189, 9.000000000000000000 ) ;
#13 = DIRECTION ( 'NONE',  ( -0.000000000000000000, -0.000000000000000000, -1.000000000000000000 ) ) ;
#14 = CC_DESIGN_PERSON_AND_ORGANIZATION_ASSIGNMENT ( #70, #259, ( #144 ) ) ;
#15 = DIRECTION ( 'NONE',  ( -0.000000000000000000, -0.000000000000000000, -1.000000000000000000 ) ) ;
#16 = CYLINDRICAL_SURFACE ( 'NONE', #129, 6.099999999999999645 ) ;
#17 = CLOSED_SHELL ( 'NONE', ( #162, #28, #57, #26, #267, #39, #279, #299, #73 ) ) ;
#18 = EDGE_CURVE ( 'NONE', #155, #204, #221, .T. ) ;
#19 = CARTESIAN_POINT ( 'NONE',  ( 9.000000000000000000, 1.102182119232617714E-15, 0.000000000000000000 ) ) ;
#20 = CARTESIAN_POINT ( 'NONE',  ( -6.099999999999999645, 0.000000000000000000, 207.0000000000000284 ) ) ;
#21 = CARTESIAN_POINT ( 'NONE',  ( -6.299999999999998934, 7.715274834628324392E-16, 7.200000000000011724 ) ) ;
#22 = AXIS2_PLACEMENT_3D ( 'NONE', #179, #253, #185 ) ;
#23 = PRODUCT_DEFINITION_FORMATION_WITH_SPECIFIED_SOURCE ( 'LIBOVOLNÝ', '', #93, .NOT_KNOWN. ) ;
#24 = DIRECTION ( 'NONE',  ( 1.000000000000000000, 0.000000000000000000, 0.000000000000000000 ) ) ;
#25 = APPROVAL_DATE_TIME ( #85, #30 ) ;
#26 = ADVANCED_FACE ( 'NONE', ( #133 ), #227, .T. ) ;
#27 = CIRCLE ( 'NONE', #22, 6.099999999999999645 ) ;
#28 = ADVANCED_FACE ( 'NONE', ( #201 ), #16, .T. ) ;
#29 = CARTESIAN_POINT ( 'NONE',  ( 0.000000000000000000, 0.000000000000000000, 0.000000000000000000 ) ) ;
#30 = APPROVAL ( #168, 'NEURÈENÝ' ) ;
#31 = APPROVAL_STATUS ( 'not_yet_approved' ) ;
#32 = LOCAL_TIME ( 11, 44, 56.00000000000000000, #256 ) ;
#33 = ORIENTED_EDGE ( 'NONE', *, *, #158, .F. ) ;
#34 = EDGE_CURVE ( 'NONE', #55, #204, #181, .T. ) ;
#35 = EDGE_LOOP ( 'NONE', ( #225, #250, #59, #294 ) ) ;
#36 = VERTEX_POINT ( 'NONE', #132 ) ;
#37 = LOCAL_TIME ( 11, 44, 56.00000000000000000, #232 ) ;
#38 = CARTESIAN_POINT ( 'NONE',  ( 0.000000000000000000, 0.000000000000000000, 7.000000000000000000 ) ) ;
#39 = ADVANCED_FACE ( 'NONE', ( #246 ), #79, .F. ) ;
#40 = VECTOR ( 'NONE', #252, 1000.000000000000000 ) ;
#41 = VERTEX_POINT ( 'NONE', #200 ) ;
#42 = ORIENTED_EDGE ( 'NONE', *, *, #34, .T. ) ;
#43 = DIRECTION ( 'NONE',  ( -0.000000000000000000, -0.000000000000000000, -1.000000000000000000 ) ) ;
#44 = DIRECTION ( 'NONE',  ( -0.000000000000000000, -0.000000000000000000, -1.000000000000000000 ) ) ;
#45 = CARTESIAN_POINT ( 'NONE',  ( 0.000000000000000000, 0.000000000000000000, 7.000000000000000000 ) ) ;
#46 = DIRECTION ( 'NONE',  ( 0.000000000000000000, 0.000000000000000000, 1.000000000000000000 ) ) ;
#47 = COORDINATED_UNIVERSAL_TIME_OFFSET ( 1, 0, .AHEAD. ) ;
#48 = DATE_AND_TIME ( #261, #32 ) ;
#49 = EDGE_CURVE ( 'NONE', #204, #55, #164, .T. ) ;
#50 = AXIS2_PLACEMENT_3D ( 'NONE', #282, #69, #167 ) ;
#51 = CIRCLE ( 'NONE', #50, 0.1999999999999996503 ) ;
#52 =( NAMED_UNIT ( * ) PLANE_ANGLE_UNIT ( ) SI_UNIT ( $, .RADIAN. ) );
#53 = DIRECTION ( 'NONE',  ( 0.000000000000000000, 0.000000000000000000, 1.000000000000000000 ) ) ;
#54 = CIRCLE ( 'NONE', #156, 0.1999999999999996503 ) ;
#55 = VERTEX_POINT ( 'NONE', #58 ) ;
#56 = FACE_OUTER_BOUND ( 'NONE', #226, .T. ) ;
#57 = ADVANCED_FACE ( 'NONE', ( #56 ), #151, .T. ) ;
#58 = CARTESIAN_POINT ( 'NONE',  ( 6.099999999999999645, 7.470345474798854293E-16, 7.200000000000011724 ) ) ;
#59 = ORIENTED_EDGE ( 'NONE', *, *, #171, .F. ) ;
#60 = ORIENTED_EDGE ( 'NONE', *, *, #83, .T. ) ;
#61 = CIRCLE ( 'NONE', #239, 6.299999999999998934 ) ;
#62 = ORIENTED_EDGE ( 'NONE', *, *, #242, .T. ) ;
#63 = ORIENTED_EDGE ( 'NONE', *, *, #94, .F. ) ;
#64 = CARTESIAN_POINT ( 'NONE',  ( 0.000000000000000000, 0.000000000000000000, 207.0000000000000284 ) ) ;
#65 = CC_DESIGN_PERSON_AND_ORGANIZATION_ASSIGNMENT ( #92, #1, ( #23 ) ) ;
#66 = CARTESIAN_POINT ( 'NONE',  ( 0.000000000000000000, 0.000000000000000000, 0.000000000000000000 ) ) ;
#67 = CARTESIAN_POINT ( 'NONE',  ( 9.000000000000000000, 1.102182119232617714E-15, 7.000000000000000000 ) ) ;
#68 = APPROVAL ( #31, 'NEURÈENÝ' ) ;
#69 = DIRECTION ( 'NONE',  ( 0.000000000000000000, -1.000000000000000000, 0.000000000000000000 ) ) ;
#70 = PERSON_AND_ORGANIZATION ( #283, #89 ) ;
#71 = TOROIDAL_SURFACE ( 'NONE', #173, 6.299999999999998934, 0.2000000000000000111 ) ;
#72 = DATE_TIME_ROLE ( 'creation_date' ) ;
#73 = ADVANCED_FACE ( 'NONE', ( #251 ), #71, .F. ) ;
#74 = DIRECTION ( 'NONE',  ( 1.000000000000000000, 0.000000000000000000, 0.000000000000000000 ) ) ;
#75 =( LENGTH_UNIT ( ) NAMED_UNIT ( * ) SI_UNIT ( .MILLI., .METRE. ) );
#76 = CARTESIAN_POINT ( 'NONE',  ( 0.000000000000000000, 0.000000000000000000, 0.000000000000000000 ) ) ;
#77 = ORIENTED_EDGE ( 'NONE', *, *, #158, .T. ) ;
#78 = CIRCLE ( 'NONE', #88, 9.000000000000000000 ) ;
#79 = PLANE ( 'NONE',  #296 ) ;
#80 = DIRECTION ( 'NONE',  ( 0.000000000000000000, 0.000000000000000000, 1.000000000000000000 ) ) ;
#81 = ORIENTED_EDGE ( 'NONE', *, *, #242, .F. ) ;
#82 = ORIENTED_EDGE ( 'NONE', *, *, #203, .T. ) ;
#83 = EDGE_CURVE ( 'NONE', #125, #155, #27, .T. ) ;
#84 = DIRECTION ( 'NONE',  ( 0.000000000000000000, 0.000000000000000000, 1.000000000000000000 ) ) ;
#85 = DATE_AND_TIME ( #166, #37 ) ;
#86 = CARTESIAN_POINT ( 'NONE',  ( 0.000000000000000000, 0.000000000000000000, 7.000000000000000000 ) ) ;
#87 = APPROVAL_STATUS ( 'not_yet_approved' ) ;
#88 = AXIS2_PLACEMENT_3D ( 'NONE', #66, #46, #163 ) ;
#89 = ORGANIZATION ( 'NEURÈENÝ', 'NEURÈENÝ', '' ) ;
#90 = CARTESIAN_POINT ( 'NONE',  ( 0.000000000000000000, 0.000000000000000000, 7.000000000000000000 ) ) ;
#91 = CALENDAR_DATE ( 2022, 7, 7 ) ;
#92 = PERSON_AND_ORGANIZATION ( #283, #89 ) ;
#93 = PRODUCT ( '1819', '1819', '', ( #97 ) ) ;
#94 = EDGE_CURVE ( 'NONE', #155, #125, #244, .T. ) ;
#95 = COORDINATED_UNIVERSAL_TIME_OFFSET ( 1, 0, .AHEAD. ) ;
#96 = VECTOR ( 'NONE', #43, 1000.000000000000000 ) ;
#97 = MECHANICAL_CONTEXT ( 'NONE', #123, 'mechanical' ) ;
#98 = FACE_BOUND ( 'NONE', #175, .T. ) ;
#99 = CARTESIAN_POINT ( 'NONE',  ( 6.299999999999998934, 0.000000000000000000, 7.000000000000006217 ) ) ;
#100 = AXIS2_PLACEMENT_3D ( 'NONE', #29, #264, #74 ) ;
#101 = ADVANCED_BREP_SHAPE_REPRESENTATION ( '1819', ( #291, #103 ), #224 ) ;
#102 = CC_DESIGN_PERSON_AND_ORGANIZATION_ASSIGNMENT ( #237, #137, ( #23 ) ) ;
#103 = AXIS2_PLACEMENT_3D ( 'NONE', #76, #53, #284 ) ;
#104 = DIRECTION ( 'NONE',  ( 0.000000000000000000, 0.000000000000000000, 1.000000000000000000 ) ) ;
#105 = EDGE_CURVE ( 'NONE', #204, #182, #54, .T. ) ;
#106 = ORIENTED_EDGE ( 'NONE', *, *, #142, .T. ) ;
#107 = CIRCLE ( 'NONE', #280, 6.299999999999998934 ) ;
#108 = ORIENTED_EDGE ( 'NONE', *, *, #83, .F. ) ;
#109 = DIRECTION ( 'NONE',  ( -1.000000000000000000, 0.000000000000000000, 0.000000000000000000 ) ) ;
#110 = ORIENTED_EDGE ( 'NONE', *, *, #105, .F. ) ;
#111 = CARTESIAN_POINT ( 'NONE',  ( 0.000000000000000000, 0.000000000000000000, 7.200000000000011724 ) ) ;
#112 = ORIENTED_EDGE ( 'NONE', *, *, #194, .T. ) ;
#113 = DIRECTION ( 'NONE',  ( 1.000000000000000000, 0.000000000000000000, 0.000000000000000000 ) ) ;
#114 = CARTESIAN_POINT ( 'NONE',  ( 9.000000000000000000, 1.102182119232617714E-15, 7.000000000000000000 ) ) ;
#115 = DIRECTION ( 'NONE',  ( 1.224646799147353207E-16, 1.000000000000000000, -0.000000000000000000 ) ) ;
#116 = CC_DESIGN_APPROVAL ( #30, ( #131 ) ) ;
#117 = DIRECTION ( 'NONE',  ( 0.000000000000000000, 0.000000000000000000, 1.000000000000000000 ) ) ;
#118 = EDGE_CURVE ( 'NONE', #176, #41, #78, .T. ) ;
#119 = APPROVAL_ROLE ( '' ) ;
#120 = PERSON_AND_ORGANIZATION_ROLE ( 'design_owner' ) ;
#121 = DIRECTION ( 'NONE',  ( -0.000000000000000000, -0.000000000000000000, -1.000000000000000000 ) ) ;
#122 = FACE_OUTER_BOUND ( 'NONE', #177, .T. ) ;
#123 = APPLICATION_CONTEXT ( 'configuration controlled 3d designs of mechanical parts and assemblies' ) ;
#124 = APPROVAL_PERSON_ORGANIZATION ( #241, #68, #188 ) ;
#125 = VERTEX_POINT ( 'NONE', #255 ) ;
#126 = DIRECTION ( 'NONE',  ( 1.000000000000000000, 0.000000000000000000, 0.000000000000000000 ) ) ;
#127 = ORIENTED_EDGE ( 'NONE', *, *, #118, .T. ) ;
#128 = AXIS2_PLACEMENT_3D ( 'NONE', #4, #6, #147 ) ;
#129 = AXIS2_PLACEMENT_3D ( 'NONE', #184, #174, #290 ) ;
#130 = VERTEX_POINT ( 'NONE', #67 ) ;
#131 = SECURITY_CLASSIFICATION ( '', '', #143 ) ;
#132 = CARTESIAN_POINT ( 'NONE',  ( -9.000000000000000000, 0.000000000000000000, 7.000000000000000000 ) ) ;
#133 = FACE_OUTER_BOUND ( 'NONE', #8, .T. ) ;
#134 = CARTESIAN_POINT ( 'NONE',  ( 0.000000000000000000, 0.000000000000000000, 7.000000000000000000 ) ) ;
#135 = EDGE_CURVE ( 'NONE', #125, #55, #138, .T. ) ;
#136 = DIRECTION ( 'NONE',  ( -1.000000000000000000, 1.224646799147353454E-16, 0.000000000000000000 ) ) ;
#137 = PERSON_AND_ORGANIZATION_ROLE ( 'creator' ) ;
#138 = LINE ( 'NONE', #161, #96 ) ;
#139 = DIRECTION ( 'NONE',  ( 0.000000000000000000, 0.000000000000000000, 1.000000000000000000 ) ) ;
#140 = VECTOR ( 'NONE', #213, 1000.000000000000000 ) ;
#141 = SHAPE_DEFINITION_REPRESENTATION ( #303, #101 ) ;
#142 = EDGE_CURVE ( 'NONE', #130, #36, #223, .T. ) ;
#143 = SECURITY_CLASSIFICATION_LEVEL ( 'unclassified' ) ;
#144 = PRODUCT_DEFINITION ( 'NEZNÁMÝ', '', #23, #178 ) ;
#145 = APPLICATION_PROTOCOL_DEFINITION ( 'international standard', 'config_control_design', 1994, #216 ) ;
#146 =( NAMED_UNIT ( * ) SI_UNIT ( $, .STERADIAN. ) SOLID_ANGLE_UNIT ( ) );
#147 = DIRECTION ( 'NONE',  ( 1.000000000000000000, 0.000000000000000000, -0.000000000000000000 ) ) ;
#148 = ORIENTED_EDGE ( 'NONE', *, *, #94, .T. ) ;
#149 = LOCAL_TIME ( 11, 44, 56.00000000000000000, #95 ) ;
#150 = DIRECTION ( 'NONE',  ( -1.000000000000000000, 0.000000000000000000, 0.000000000000000000 ) ) ;
#151 = CYLINDRICAL_SURFACE ( 'NONE', #302, 9.000000000000000000 ) ;
#152 = ORIENTED_EDGE ( 'NONE', *, *, #135, .F. ) ;
#153 = UNCERTAINTY_MEASURE_WITH_UNIT (LENGTH_MEASURE( 1.000000000000000082E-05 ), #75, 'distance_accuracy_value', 'NONE');
#154 = DIRECTION ( 'NONE',  ( 1.000000000000000000, 0.000000000000000000, -0.000000000000000000 ) ) ;
#155 = VERTEX_POINT ( 'NONE', #20 ) ;
#156 = AXIS2_PLACEMENT_3D ( 'NONE', #21, #115, #136 ) ;
#157 = ORIENTED_EDGE ( 'NONE', *, *, #199, .T. ) ;
#158 = EDGE_CURVE ( 'NONE', #130, #176, #306, .T. ) ;
#159 = CARTESIAN_POINT ( 'NONE',  ( -6.099999999999999645, 0.000000000000000000, 207.0000000000000284 ) ) ;
#160 = PRODUCT_RELATED_PRODUCT_CATEGORY ( 'detail', '', ( #93 ) ) ;
#161 = CARTESIAN_POINT ( 'NONE',  ( 6.099999999999999645, 7.470345474798854293E-16, 207.0000000000000284 ) ) ;
#162 = ADVANCED_FACE ( 'NONE', ( #208 ), #266, .F. ) ;
#163 = DIRECTION ( 'NONE',  ( 1.000000000000000000, 0.000000000000000000, 0.000000000000000000 ) ) ;
#164 = CIRCLE ( 'NONE', #2, 6.099999999999999645 ) ;
#165 = DIRECTION ( 'NONE',  ( 1.000000000000000000, 0.000000000000000000, 0.000000000000000000 ) ) ;
#166 = CALENDAR_DATE ( 2022, 7, 7 ) ;
#167 = DIRECTION ( 'NONE',  ( 0.000000000000000000, 0.000000000000000000, -1.000000000000000000 ) ) ;
#168 = APPROVAL_STATUS ( 'not_yet_approved' ) ;
#169 = PERSON_AND_ORGANIZATION ( #283, #89 ) ;
#170 = PERSON_AND_ORGANIZATION ( #283, #89 ) ;
#171 = EDGE_CURVE ( 'NONE', #297, #182, #61, .T. ) ;
#172 = LOCAL_TIME ( 11, 44, 56.00000000000000000, #214 ) ;
#173 = AXIS2_PLACEMENT_3D ( 'NONE', #231, #84, #165 ) ;
#174 = DIRECTION ( 'NONE',  ( -0.000000000000000000, -0.000000000000000000, -1.000000000000000000 ) ) ;
#175 = EDGE_LOOP ( 'NONE', ( #10, #112 ) ) ;
#176 = VERTEX_POINT ( 'NONE', #19 ) ;
#177 = EDGE_LOOP ( 'NONE', ( #152, #63, #245, #269 ) ) ;
#178 = DESIGN_CONTEXT ( 'detailed design', #216, 'design' ) ;
#179 = CARTESIAN_POINT ( 'NONE',  ( 0.000000000000000000, 0.000000000000000000, 207.0000000000000284 ) ) ;
#180 = CC_DESIGN_DATE_AND_TIME_ASSIGNMENT ( #48, #217, ( #131 ) ) ;
#181 = CIRCLE ( 'NONE', #228, 6.099999999999999645 ) ;
#182 = VERTEX_POINT ( 'NONE', #210 ) ;
#183 = CC_DESIGN_SECURITY_CLASSIFICATION ( #131, ( #23 ) ) ;
#184 = CARTESIAN_POINT ( 'NONE',  ( 0.000000000000000000, 0.000000000000000000, 207.0000000000000284 ) ) ;
#185 = DIRECTION ( 'NONE',  ( 1.000000000000000000, 0.000000000000000000, 0.000000000000000000 ) ) ;
#186 = CARTESIAN_POINT ( 'NONE',  ( 0.000000000000000000, 0.000000000000000000, 7.200000000000011724 ) ) ;
#187 = AXIS2_PLACEMENT_3D ( 'NONE', #186, #117, #300 ) ;
#188 = APPROVAL_ROLE ( '' ) ;
#189 = AXIS2_PLACEMENT_3D ( 'NONE', #90, #207, #24 ) ;
#190 = DIRECTION ( 'NONE',  ( 0.000000000000000000, 0.000000000000000000, 1.000000000000000000 ) ) ;
#191 = APPROVAL_ROLE ( '' ) ;
#192 = CALENDAR_DATE ( 2022, 7, 7 ) ;
#193 = AXIS2_PLACEMENT_3D ( 'NONE', #64, #139, #278 ) ;
#194 = EDGE_CURVE ( 'NONE', #182, #297, #107, .T. ) ;
#195 = CYLINDRICAL_SURFACE ( 'NONE', #249, 6.099999999999999645 ) ;
#196 = DIRECTION ( 'NONE',  ( 1.000000000000000000, 0.000000000000000000, -0.000000000000000000 ) ) ;
#197 = AXIS2_PLACEMENT_3D ( 'NONE', #134, #190, #229 ) ;
#198 = FACE_OUTER_BOUND ( 'NONE', #271, .T. ) ;
#199 = EDGE_CURVE ( 'NONE', #36, #130, #12, .T. ) ;
#200 = CARTESIAN_POINT ( 'NONE',  ( -9.000000000000000000, 0.000000000000000000, 0.000000000000000000 ) ) ;
#201 = FACE_OUTER_BOUND ( 'NONE', #276, .T. ) ;
#202 = ORIENTED_EDGE ( 'NONE', *, *, #286, .F. ) ;
#203 = EDGE_CURVE ( 'NONE', #55, #297, #51, .T. ) ;
#204 = VERTEX_POINT ( 'NONE', #298 ) ;
#205 = EDGE_LOOP ( 'NONE', ( #157, #106 ) ) ;
#206 = ORIENTED_EDGE ( 'NONE', *, *, #142, .F. ) ;
#207 = DIRECTION ( 'NONE',  ( 0.000000000000000000, 0.000000000000000000, 1.000000000000000000 ) ) ;
#208 = FACE_OUTER_BOUND ( 'NONE', #35, .T. ) ;
#209 = CALENDAR_DATE ( 2022, 7, 7 ) ;
#210 = CARTESIAN_POINT ( 'NONE',  ( -6.299999999999998934, 7.715274834628324392E-16, 7.000000000000006217 ) ) ;
#211 = DATE_AND_TIME ( #192, #172 ) ;
#212 = APPROVAL ( #87, 'NEURÈENÝ' ) ;
#213 = DIRECTION ( 'NONE',  ( -0.000000000000000000, -0.000000000000000000, -1.000000000000000000 ) ) ;
#214 = COORDINATED_UNIVERSAL_TIME_OFFSET ( 1, 0, .AHEAD. ) ;
#215 = APPROVAL_DATE_TIME ( #236, #212 ) ;
#216 = APPLICATION_CONTEXT ( 'configuration controlled 3d designs of mechanical parts and assemblies' ) ;
#217 = DATE_TIME_ROLE ( 'classification_date' ) ;
#218 = PLANE ( 'NONE',  #234 ) ;
#219 = CARTESIAN_POINT ( 'NONE',  ( 0.000000000000000000, 0.000000000000000000, 207.0000000000000284 ) ) ;
#220 = AXIS2_PLACEMENT_3D ( 'NONE', #9, #15, #150 ) ;
#221 = LINE ( 'NONE', #159, #40 ) ;
#222 = ORIENTED_EDGE ( 'NONE', *, *, #286, .T. ) ;
#223 = CIRCLE ( 'NONE', #197, 9.000000000000000000 ) ;
#224 =( GEOMETRIC_REPRESENTATION_CONTEXT ( 3 ) GLOBAL_UNCERTAINTY_ASSIGNED_CONTEXT ( ( #153 ) ) GLOBAL_UNIT_ASSIGNED_CONTEXT ( ( #75, #52, #146 ) ) REPRESENTATION_CONTEXT ( 'NONE', 'WORKASPACE' ) );
#225 = ORIENTED_EDGE ( 'NONE', *, *, #49, .F. ) ;
#226 = EDGE_LOOP ( 'NONE', ( #206, #77, #127, #81 ) ) ;
#227 = CYLINDRICAL_SURFACE ( 'NONE', #220, 9.000000000000000000 ) ;
#228 = AXIS2_PLACEMENT_3D ( 'NONE', #292, #270, #126 ) ;
#229 = DIRECTION ( 'NONE',  ( 1.000000000000000000, 0.000000000000000000, 0.000000000000000000 ) ) ;
#230 = PERSON_AND_ORGANIZATION ( #283, #89 ) ;
#231 = CARTESIAN_POINT ( 'NONE',  ( 0.000000000000000000, 0.000000000000000000, 7.200000000000011724 ) ) ;
#232 = COORDINATED_UNIVERSAL_TIME_OFFSET ( 1, 0, .AHEAD. ) ;
#233 = CARTESIAN_POINT ( 'NONE',  ( -9.000000000000000000, 0.000000000000000000, 7.000000000000000000 ) ) ;
#234 = AXIS2_PLACEMENT_3D ( 'NONE', #219, #265, #196 ) ;
#235 = CC_DESIGN_PERSON_AND_ORGANIZATION_ASSIGNMENT ( #230, #301, ( #131 ) ) ;
#236 = DATE_AND_TIME ( #209, #149 ) ;
#237 = PERSON_AND_ORGANIZATION ( #283, #89 ) ;
#238 = PERSON_AND_ORGANIZATION ( #283, #89 ) ;
#239 = AXIS2_PLACEMENT_3D ( 'NONE', #86, #281, #257 ) ;
#240 = FACE_OUTER_BOUND ( 'NONE', #205, .T. ) ;
#241 = PERSON_AND_ORGANIZATION ( #283, #89 ) ;
#242 = EDGE_CURVE ( 'NONE', #36, #41, #258, .T. ) ;
#243 = ORIENTED_EDGE ( 'NONE', *, *, #18, .F. ) ;
#244 = CIRCLE ( 'NONE', #193, 6.099999999999999645 ) ;
#245 = ORIENTED_EDGE ( 'NONE', *, *, #18, .T. ) ;
#246 = FACE_OUTER_BOUND ( 'NONE', #247, .T. ) ;
#247 = EDGE_LOOP ( 'NONE', ( #202, #277 ) ) ;
#248 = EDGE_LOOP ( 'NONE', ( #110, #293, #82, #11 ) ) ;
#249 = AXIS2_PLACEMENT_3D ( 'NONE', #287, #121, #7 ) ;
#250 = ORIENTED_EDGE ( 'NONE', *, *, #105, .T. ) ;
#251 = FACE_OUTER_BOUND ( 'NONE', #248, .T. ) ;
#252 = DIRECTION ( 'NONE',  ( -0.000000000000000000, -0.000000000000000000, -1.000000000000000000 ) ) ;
#253 = DIRECTION ( 'NONE',  ( 0.000000000000000000, 0.000000000000000000, 1.000000000000000000 ) ) ;
#254 = VECTOR ( 'NONE', #44, 1000.000000000000000 ) ;
#255 = CARTESIAN_POINT ( 'NONE',  ( 6.099999999999999645, 7.470345474798854293E-16, 207.0000000000000284 ) ) ;
#256 = COORDINATED_UNIVERSAL_TIME_OFFSET ( 1, 0, .AHEAD. ) ;
#257 = DIRECTION ( 'NONE',  ( 1.000000000000000000, 0.000000000000000000, 0.000000000000000000 ) ) ;
#258 = LINE ( 'NONE', #233, #140 ) ;
#259 = PERSON_AND_ORGANIZATION_ROLE ( 'creator' ) ;
#260 = CIRCLE ( 'NONE', #100, 9.000000000000000000 ) ;
#261 = CALENDAR_DATE ( 2022, 7, 7 ) ;
#262 = CC_DESIGN_APPROVAL ( #68, ( #144 ) ) ;
#263 = CC_DESIGN_DATE_AND_TIME_ASSIGNMENT ( #305, #72, ( #144 ) ) ;
#264 = DIRECTION ( 'NONE',  ( 0.000000000000000000, 0.000000000000000000, 1.000000000000000000 ) ) ;
#265 = DIRECTION ( 'NONE',  ( 0.000000000000000000, 0.000000000000000000, 1.000000000000000000 ) ) ;
#266 = TOROIDAL_SURFACE ( 'NONE', #187, 6.299999999999998934, 0.2000000000000000111 ) ;
#267 = ADVANCED_FACE ( 'NONE', ( #98, #240 ), #285, .T. ) ;
#268 = CARTESIAN_POINT ( 'NONE',  ( 0.000000000000000000, 0.000000000000000000, 0.000000000000000000 ) ) ;
#269 = ORIENTED_EDGE ( 'NONE', *, *, #49, .T. ) ;
#270 = DIRECTION ( 'NONE',  ( 0.000000000000000000, 0.000000000000000000, 1.000000000000000000 ) ) ;
#271 = EDGE_LOOP ( 'NONE', ( #148, #60 ) ) ;
#272 = ORIENTED_EDGE ( 'NONE', *, *, #135, .T. ) ;
#273 = CC_DESIGN_APPROVAL ( #212, ( #23 ) ) ;
#274 = ORIENTED_EDGE ( 'NONE', *, *, #199, .F. ) ;
#275 = APPROVAL_PERSON_ORGANIZATION ( #170, #212, #119 ) ;
#276 = EDGE_LOOP ( 'NONE', ( #108, #272, #42, #243 ) ) ;
#277 = ORIENTED_EDGE ( 'NONE', *, *, #118, .F. ) ;
#278 = DIRECTION ( 'NONE',  ( 1.000000000000000000, 0.000000000000000000, 0.000000000000000000 ) ) ;
#279 = ADVANCED_FACE ( 'NONE', ( #122 ), #195, .T. ) ;
#280 = AXIS2_PLACEMENT_3D ( 'NONE', #45, #304, #113 ) ;
#281 = DIRECTION ( 'NONE',  ( -0.000000000000000000, -0.000000000000000000, -1.000000000000000000 ) ) ;
#282 = CARTESIAN_POINT ( 'NONE',  ( 6.299999999999998934, 0.000000000000000000, 7.200000000000011724 ) ) ;
#283 = PERSON ( 'NEURÈENÝ', 'NEURÈENÝ', 'NEURÈENÝ', ('NEURÈENÝ'), ('NEURÈENÝ'), ('NEURÈENÝ') ) ;
#284 = DIRECTION ( 'NONE',  ( 1.000000000000000000, 0.000000000000000000, 0.000000000000000000 ) ) ;
#285 = PLANE ( 'NONE',  #128 ) ;
#286 = EDGE_CURVE ( 'NONE', #41, #176, #260, .T. ) ;
#287 = CARTESIAN_POINT ( 'NONE',  ( 0.000000000000000000, 0.000000000000000000, 207.0000000000000284 ) ) ;
#288 = LOCAL_TIME ( 11, 44, 56.00000000000000000, #47 ) ;
#289 = DIRECTION ( 'NONE',  ( 1.000000000000000000, 0.000000000000000000, 0.000000000000000000 ) ) ;
#290 = DIRECTION ( 'NONE',  ( -1.000000000000000000, 0.000000000000000000, 0.000000000000000000 ) ) ;
#291 = MANIFOLD_SOLID_BREP ( 'Zaoblit1', #17 ) ;
#292 = CARTESIAN_POINT ( 'NONE',  ( 0.000000000000000000, 0.000000000000000000, 7.200000000000011724 ) ) ;
#293 = ORIENTED_EDGE ( 'NONE', *, *, #34, .F. ) ;
#294 = ORIENTED_EDGE ( 'NONE', *, *, #203, .F. ) ;
#295 = APPROVAL_PERSON_ORGANIZATION ( #169, #30, #191 ) ;
#296 = AXIS2_PLACEMENT_3D ( 'NONE', #268, #104, #154 ) ;
#297 = VERTEX_POINT ( 'NONE', #99 ) ;
#298 = CARTESIAN_POINT ( 'NONE',  ( -6.099999999999999645, 0.000000000000000000, 7.200000000000011724 ) ) ;
#299 = ADVANCED_FACE ( 'NONE', ( #198 ), #218, .T. ) ;
#300 = DIRECTION ( 'NONE',  ( 1.000000000000000000, 0.000000000000000000, 0.000000000000000000 ) ) ;
#301 = PERSON_AND_ORGANIZATION_ROLE ( 'classification_officer' ) ;
#302 = AXIS2_PLACEMENT_3D ( 'NONE', #38, #13, #109 ) ;
#303 = PRODUCT_DEFINITION_SHAPE ( 'NONE', 'NONE',  #144 ) ;
#304 = DIRECTION ( 'NONE',  ( -0.000000000000000000, -0.000000000000000000, -1.000000000000000000 ) ) ;
#305 = DATE_AND_TIME ( #91, #288 ) ;
#306 = LINE ( 'NONE', #114, #254 ) ;
#307 = APPROVAL_DATE_TIME ( #211, #68 ) ;
ENDSEC;
END-ISO-10303-21;
