ISO-10303-21;
HEADER;
FILE_DESCRIPTION (( 'STEP AP203' ),
    '1' );
FILE_NAME ('9e60.STEP',
    '2022-07-07T09:58:57',
    ( '' ),
    ( '' ),
    'SwSTEP 2.0',
    'SolidWorks 2019',
    '' );
FILE_SCHEMA (( 'CONFIG_CONTROL_DESIGN' ));
ENDSEC;

DATA;
#1 = AXIS2_PLACEMENT_3D ( 'NONE', #17, #86, #92 ) ;
#2 = CARTESIAN_POINT ( 'NONE',  ( 4.250000000000000000, 5.204748896376250699E-16, 5.200000000000009948 ) ) ;
#3 = AXIS2_PLACEMENT_3D ( 'NONE', #188, #210, #42 ) ;
#4 = EDGE_CURVE ( 'NONE', #252, #102, #284, .T. ) ;
#5 = MECHANICAL_CONTEXT ( 'NONE', #87, 'mechanical' ) ;
#6 = DIRECTION ( 'NONE',  ( 1.000000000000000000, 0.000000000000000000, 0.000000000000000000 ) ) ;
#7 = AXIS2_PLACEMENT_3D ( 'NONE', #144, #221, #119 ) ;
#8 = DIRECTION ( 'NONE',  ( 1.000000000000000000, 0.000000000000000000, 0.000000000000000000 ) ) ;
#9 = ORIENTED_EDGE ( 'NONE', *, *, #236, .T. ) ;
#10 = EDGE_LOOP ( 'NONE', ( #128, #58, #76, #182 ) ) ;
#11 = PERSON ( 'NEURÈENÝ', 'NEURÈENÝ', 'NEURÈENÝ', ('NEURÈENÝ'), ('NEURÈENÝ'), ('NEURÈENÝ') ) ;
#12 = ORIENTED_EDGE ( 'NONE', *, *, #50, .F. ) ;
#13 = VERTEX_POINT ( 'NONE', #34 ) ;
#14 = ORIENTED_EDGE ( 'NONE', *, *, #239, .T. ) ;
#15 = LOCAL_TIME ( 11, 58, 57.00000000000000000, #247 ) ;
#16 = ORIENTED_EDGE ( 'NONE', *, *, #194, .F. ) ;
#17 = CARTESIAN_POINT ( 'NONE',  ( -4.450000000000000178, 5.449678256205721784E-16, 5.200000000000009948 ) ) ;
#18 = CIRCLE ( 'NONE', #95, 0.1999999999999996503 ) ;
#19 = PLANE ( 'NONE',  #179 ) ;
#20 = PRODUCT ( '9e60', '9e60', '', ( #5 ) ) ;
#21 = CARTESIAN_POINT ( 'NONE',  ( 0.000000000000000000, 0.000000000000000000, 5.200000000000009948 ) ) ;
#22 = APPROVAL_PERSON_ORGANIZATION ( #51, #117, #49 ) ;
#23 = FACE_BOUND ( 'NONE', #206, .T. ) ;
#24 = MANIFOLD_SOLID_BREP ( 'Zaoblit1', #163 ) ;
#25 =( NAMED_UNIT ( * ) PLANE_ANGLE_UNIT ( ) SI_UNIT ( $, .RADIAN. ) );
#26 = SECURITY_CLASSIFICATION ( '', '', #290 ) ;
#27 = AXIS2_PLACEMENT_3D ( 'NONE', #169, #240, #97 ) ;
#28 = PERSON_AND_ORGANIZATION ( #11, #91 ) ;
#29 = APPROVAL_STATUS ( 'not_yet_approved' ) ;
#30 = APPROVAL_DATE_TIME ( #55, #298 ) ;
#31 = ORIENTED_EDGE ( 'NONE', *, *, #59, .F. ) ;
#32 = CIRCLE ( 'NONE', #250, 7.000000000000000000 ) ;
#33 = EDGE_LOOP ( 'NONE', ( #38, #149 ) ) ;
#34 = CARTESIAN_POINT ( 'NONE',  ( -4.250000000000000000, 0.000000000000000000, 165.0000000000000000 ) ) ;
#35 = ORIENTED_EDGE ( 'NONE', *, *, #155, .T. ) ;
#36 = APPROVAL ( #29, 'NEURÈENÝ' ) ;
#37 = CARTESIAN_POINT ( 'NONE',  ( 0.000000000000000000, 0.000000000000000000, 5.000000000000000000 ) ) ;
#38 = ORIENTED_EDGE ( 'NONE', *, *, #73, .T. ) ;
#39 = ORIENTED_EDGE ( 'NONE', *, *, #73, .F. ) ;
#40 = CC_DESIGN_SECURITY_CLASSIFICATION ( #26, ( #245 ) ) ;
#41 = CARTESIAN_POINT ( 'NONE',  ( 0.000000000000000000, 0.000000000000000000, 165.0000000000000000 ) ) ;
#42 = DIRECTION ( 'NONE',  ( 1.000000000000000000, 0.000000000000000000, 0.000000000000000000 ) ) ;
#43 = PRODUCT_DEFINITION_SHAPE ( 'NONE', 'NONE',  #89 ) ;
#44 = CIRCLE ( 'NONE', #295, 4.250000000000000000 ) ;
#45 = FACE_OUTER_BOUND ( 'NONE', #222, .T. ) ;
#46 = DIRECTION ( 'NONE',  ( 0.000000000000000000, 0.000000000000000000, 1.000000000000000000 ) ) ;
#47 = ADVANCED_FACE ( 'NONE', ( #61 ), #125, .T. ) ;
#48 = CYLINDRICAL_SURFACE ( 'NONE', #231, 4.250000000000000000 ) ;
#49 = APPROVAL_ROLE ( '' ) ;
#50 = EDGE_CURVE ( 'NONE', #152, #294, #106, .T. ) ;
#51 = PERSON_AND_ORGANIZATION ( #11, #91 ) ;
#52 = AXIS2_PLACEMENT_3D ( 'NONE', #267, #54, #122 ) ;
#53 = CARTESIAN_POINT ( 'NONE',  ( 0.000000000000000000, 0.000000000000000000, 5.200000000000009948 ) ) ;
#54 = DIRECTION ( 'NONE',  ( 0.000000000000000000, 0.000000000000000000, 1.000000000000000000 ) ) ;
#55 = DATE_AND_TIME ( #207, #15 ) ;
#56 = ORIENTED_EDGE ( 'NONE', *, *, #183, .T. ) ;
#57 = ORIENTED_EDGE ( 'NONE', *, *, #170, .T. ) ;
#58 = ORIENTED_EDGE ( 'NONE', *, *, #194, .T. ) ;
#59 = EDGE_CURVE ( 'NONE', #152, #223, #32, .T. ) ;
#60 = PERSON_AND_ORGANIZATION ( #11, #91 ) ;
#61 = FACE_OUTER_BOUND ( 'NONE', #126, .T. ) ;
#62 = DIRECTION ( 'NONE',  ( 1.000000000000000000, 0.000000000000000000, 0.000000000000000000 ) ) ;
#63 = DIRECTION ( 'NONE',  ( 1.000000000000000000, 0.000000000000000000, 0.000000000000000000 ) ) ;
#64 = DIRECTION ( 'NONE',  ( -1.000000000000000000, 0.000000000000000000, 0.000000000000000000 ) ) ;
#65 = DIRECTION ( 'NONE',  ( 0.000000000000000000, 0.000000000000000000, 1.000000000000000000 ) ) ;
#66 = CC_DESIGN_DATE_AND_TIME_ASSIGNMENT ( #272, #173, ( #26 ) ) ;
#67 = FACE_OUTER_BOUND ( 'NONE', #79, .T. ) ;
#68 = DIRECTION ( 'NONE',  ( 0.000000000000000000, 0.000000000000000000, 1.000000000000000000 ) ) ;
#69 = AXIS2_PLACEMENT_3D ( 'NONE', #21, #133, #164 ) ;
#70 = COORDINATED_UNIVERSAL_TIME_OFFSET ( 1, 0, .AHEAD. ) ;
#71 = CC_DESIGN_PERSON_AND_ORGANIZATION_ASSIGNMENT ( #60, #275, ( #26 ) ) ;
#72 = VECTOR ( 'NONE', #276, 1000.000000000000000 ) ;
#73 = EDGE_CURVE ( 'NONE', #223, #152, #233, .T. ) ;
#74 = COORDINATED_UNIVERSAL_TIME_OFFSET ( 1, 0, .AHEAD. ) ;
#75 = LOCAL_TIME ( 11, 58, 57.00000000000000000, #94 ) ;
#76 = ORIENTED_EDGE ( 'NONE', *, *, #277, .F. ) ;
#77 = CIRCLE ( 'NONE', #27, 7.000000000000000000 ) ;
#78 = EDGE_CURVE ( 'NONE', #273, #102, #18, .T. ) ;
#79 = EDGE_LOOP ( 'NONE', ( #83, #56, #14, #244 ) ) ;
#80 = ADVANCED_FACE ( 'NONE', ( #255 ), #303, .T. ) ;
#81 = ADVANCED_BREP_SHAPE_REPRESENTATION ( '9e60', ( #24, #52 ), #103 ) ;
#82 = DIRECTION ( 'NONE',  ( -0.000000000000000000, -0.000000000000000000, -1.000000000000000000 ) ) ;
#83 = ORIENTED_EDGE ( 'NONE', *, *, #142, .F. ) ;
#84 = CIRCLE ( 'NONE', #1, 0.1999999999999996503 ) ;
#85 = DIRECTION ( 'NONE',  ( 0.000000000000000000, -1.000000000000000000, 0.000000000000000000 ) ) ;
#86 = DIRECTION ( 'NONE',  ( 1.224646799147353207E-16, 1.000000000000000000, -0.000000000000000000 ) ) ;
#87 = APPLICATION_CONTEXT ( 'configuration controlled 3d designs of mechanical parts and assemblies' ) ;
#88 = CARTESIAN_POINT ( 'NONE',  ( 0.000000000000000000, 0.000000000000000000, 165.0000000000000000 ) ) ;
#89 = PRODUCT_DEFINITION ( 'NEZNÁMÝ', '', #245, #174 ) ;
#90 = CARTESIAN_POINT ( 'NONE',  ( 0.000000000000000000, 0.000000000000000000, 0.000000000000000000 ) ) ;
#91 = ORGANIZATION ( 'NEURÈENÝ', 'NEURÈENÝ', '' ) ;
#92 = DIRECTION ( 'NONE',  ( -1.000000000000000000, 1.224646799147353454E-16, 0.000000000000000000 ) ) ;
#93 = DIRECTION ( 'NONE',  ( -0.000000000000000000, -0.000000000000000000, -1.000000000000000000 ) ) ;
#94 = COORDINATED_UNIVERSAL_TIME_OFFSET ( 1, 0, .AHEAD. ) ;
#95 = AXIS2_PLACEMENT_3D ( 'NONE', #299, #85, #249 ) ;
#96 = PERSON_AND_ORGANIZATION_ROLE ( 'design_owner' ) ;
#97 = DIRECTION ( 'NONE',  ( 1.000000000000000000, 0.000000000000000000, 0.000000000000000000 ) ) ;
#98 = DIRECTION ( 'NONE',  ( -0.000000000000000000, -0.000000000000000000, -1.000000000000000000 ) ) ;
#99 = ORIENTED_EDGE ( 'NONE', *, *, #112, .F. ) ;
#100 = EDGE_CURVE ( 'NONE', #294, #127, #271, .T. ) ;
#101 = APPLICATION_CONTEXT ( 'configuration controlled 3d designs of mechanical parts and assemblies' ) ;
#102 = VERTEX_POINT ( 'NONE', #136 ) ;
#103 =( GEOMETRIC_REPRESENTATION_CONTEXT ( 3 ) GLOBAL_UNCERTAINTY_ASSIGNED_CONTEXT ( ( #291 ) ) GLOBAL_UNIT_ASSIGNED_CONTEXT ( ( #172, #25, #198 ) ) REPRESENTATION_CONTEXT ( 'NONE', 'WORKASPACE' ) );
#104 = EDGE_LOOP ( 'NONE', ( #16, #208, #203, #225 ) ) ;
#105 = APPROVAL_STATUS ( 'not_yet_approved' ) ;
#106 = LINE ( 'NONE', #184, #72 ) ;
#107 = CC_DESIGN_APPROVAL ( #36, ( #245 ) ) ;
#108 = DIRECTION ( 'NONE',  ( 1.000000000000000000, 0.000000000000000000, 0.000000000000000000 ) ) ;
#109 = DIRECTION ( 'NONE',  ( 1.000000000000000000, 0.000000000000000000, -0.000000000000000000 ) ) ;
#110 = AXIS2_PLACEMENT_3D ( 'NONE', #157, #129, #108 ) ;
#111 = CARTESIAN_POINT ( 'NONE',  ( 0.000000000000000000, 0.000000000000000000, 165.0000000000000000 ) ) ;
#112 = EDGE_CURVE ( 'NONE', #13, #270, #218, .T. ) ;
#113 = ADVANCED_FACE ( 'NONE', ( #23, #232 ), #19, .T. ) ;
#114 = CARTESIAN_POINT ( 'NONE',  ( -7.000000000000000000, 0.000000000000000000, 5.000000000000000000 ) ) ;
#115 = DIRECTION ( 'NONE',  ( -1.000000000000000000, 0.000000000000000000, 0.000000000000000000 ) ) ;
#116 = FACE_OUTER_BOUND ( 'NONE', #278, .T. ) ;
#117 = APPROVAL ( #287, 'NEURÈENÝ' ) ;
#118 = PERSON_AND_ORGANIZATION ( #11, #91 ) ;
#119 = DIRECTION ( 'NONE',  ( 1.000000000000000000, 0.000000000000000000, 0.000000000000000000 ) ) ;
#120 = DATE_TIME_ROLE ( 'creation_date' ) ;
#121 = CARTESIAN_POINT ( 'NONE',  ( -4.450000000000000178, 5.449678256205721784E-16, 5.000000000000005329 ) ) ;
#122 = DIRECTION ( 'NONE',  ( 1.000000000000000000, 0.000000000000000000, 0.000000000000000000 ) ) ;
#123 = EDGE_LOOP ( 'NONE', ( #175, #99, #57, #35 ) ) ;
#124 = APPROVAL_DATE_TIME ( #146, #36 ) ;
#125 = CYLINDRICAL_SURFACE ( 'NONE', #199, 7.000000000000000000 ) ;
#126 = EDGE_LOOP ( 'NONE', ( #31, #229, #154, #202 ) ) ;
#127 = VERTEX_POINT ( 'NONE', #234 ) ;
#128 = ORIENTED_EDGE ( 'NONE', *, *, #155, .F. ) ;
#129 = DIRECTION ( 'NONE',  ( 0.000000000000000000, 0.000000000000000000, 1.000000000000000000 ) ) ;
#130 = DIRECTION ( 'NONE',  ( -0.000000000000000000, -0.000000000000000000, -1.000000000000000000 ) ) ;
#131 = DIRECTION ( 'NONE',  ( 1.000000000000000000, 0.000000000000000000, -0.000000000000000000 ) ) ;
#132 = AXIS2_PLACEMENT_3D ( 'NONE', #165, #262, #285 ) ;
#133 = DIRECTION ( 'NONE',  ( 0.000000000000000000, 0.000000000000000000, 1.000000000000000000 ) ) ;
#134 = CC_DESIGN_PERSON_AND_ORGANIZATION_ASSIGNMENT ( #28, #307, ( #89 ) ) ;
#135 = CC_DESIGN_APPROVAL ( #117, ( #89 ) ) ;
#136 = CARTESIAN_POINT ( 'NONE',  ( 4.450000000000000178, 0.000000000000000000, 5.000000000000005329 ) ) ;
#137 = DIRECTION ( 'NONE',  ( -0.000000000000000000, -0.000000000000000000, -1.000000000000000000 ) ) ;
#138 = AXIS2_PLACEMENT_3D ( 'NONE', #283, #279, #64 ) ;
#139 = CARTESIAN_POINT ( 'NONE',  ( 7.000000000000000000, 8.572527594031473190E-16, 0.000000000000000000 ) ) ;
#140 = APPROVAL_PERSON_ORGANIZATION ( #268, #298, #205 ) ;
#141 = DIRECTION ( 'NONE',  ( 0.000000000000000000, 0.000000000000000000, 1.000000000000000000 ) ) ;
#142 = EDGE_CURVE ( 'NONE', #270, #13, #44, .T. ) ;
#143 = COORDINATED_UNIVERSAL_TIME_OFFSET ( 1, 0, .AHEAD. ) ;
#144 = CARTESIAN_POINT ( 'NONE',  ( 0.000000000000000000, 0.000000000000000000, 5.200000000000009948 ) ) ;
#145 = ADVANCED_FACE ( 'NONE', ( #67 ), #48, .T. ) ;
#146 = DATE_AND_TIME ( #168, #256 ) ;
#147 = DIRECTION ( 'NONE',  ( -0.000000000000000000, -0.000000000000000000, -1.000000000000000000 ) ) ;
#148 = VECTOR ( 'NONE', #305, 1000.000000000000000 ) ;
#149 = ORIENTED_EDGE ( 'NONE', *, *, #59, .T. ) ;
#150 = ORIENTED_EDGE ( 'NONE', *, *, #100, .F. ) ;
#151 = CALENDAR_DATE ( 2022, 7, 7 ) ;
#152 = VERTEX_POINT ( 'NONE', #281 ) ;
#153 = AXIS2_PLACEMENT_3D ( 'NONE', #53, #141, #8 ) ;
#154 = ORIENTED_EDGE ( 'NONE', *, *, #100, .T. ) ;
#155 = EDGE_CURVE ( 'NONE', #296, #273, #167, .T. ) ;
#156 = PERSON_AND_ORGANIZATION ( #11, #91 ) ;
#157 = CARTESIAN_POINT ( 'NONE',  ( 0.000000000000000000, 0.000000000000000000, 5.000000000000000000 ) ) ;
#158 = AXIS2_PLACEMENT_3D ( 'NONE', #251, #82, #274 ) ;
#159 = CARTESIAN_POINT ( 'NONE',  ( -4.250000000000000000, 0.000000000000000000, 165.0000000000000000 ) ) ;
#160 = FACE_OUTER_BOUND ( 'NONE', #104, .T. ) ;
#161 = TOROIDAL_SURFACE ( 'NONE', #193, 4.450000000000000178, 0.2000000000000000111 ) ;
#162 = DIRECTION ( 'NONE',  ( -1.000000000000000000, 0.000000000000000000, 0.000000000000000000 ) ) ;
#163 = CLOSED_SHELL ( 'NONE', ( #266, #145, #47, #224, #113, #166, #196, #80, #235 ) ) ;
#164 = DIRECTION ( 'NONE',  ( 1.000000000000000000, 0.000000000000000000, 0.000000000000000000 ) ) ;
#165 = CARTESIAN_POINT ( 'NONE',  ( 0.000000000000000000, 0.000000000000000000, 0.000000000000000000 ) ) ;
#166 = ADVANCED_FACE ( 'NONE', ( #116 ), #230, .F. ) ;
#167 = CIRCLE ( 'NONE', #69, 4.250000000000000000 ) ;
#168 = CALENDAR_DATE ( 2022, 7, 7 ) ;
#169 = CARTESIAN_POINT ( 'NONE',  ( 0.000000000000000000, 0.000000000000000000, 0.000000000000000000 ) ) ;
#170 = EDGE_CURVE ( 'NONE', #13, #296, #214, .T. ) ;
#171 = LOCAL_TIME ( 11, 58, 57.00000000000000000, #143 ) ;
#172 =( LENGTH_UNIT ( ) NAMED_UNIT ( * ) SI_UNIT ( .MILLI., .METRE. ) );
#173 = DATE_TIME_ROLE ( 'classification_date' ) ;
#174 = DESIGN_CONTEXT ( 'detailed design', #101, 'design' ) ;
#175 = ORIENTED_EDGE ( 'NONE', *, *, #183, .F. ) ;
#176 = PERSON_AND_ORGANIZATION ( #11, #91 ) ;
#177 = EDGE_LOOP ( 'NONE', ( #228, #180 ) ) ;
#178 = VECTOR ( 'NONE', #137, 1000.000000000000000 ) ;
#179 = AXIS2_PLACEMENT_3D ( 'NONE', #238, #46, #109 ) ;
#180 = ORIENTED_EDGE ( 'NONE', *, *, #142, .T. ) ;
#181 = SHAPE_DEFINITION_REPRESENTATION ( #43, #81 ) ;
#182 = ORIENTED_EDGE ( 'NONE', *, *, #78, .F. ) ;
#183 = EDGE_CURVE ( 'NONE', #270, #273, #306, .T. ) ;
#184 = CARTESIAN_POINT ( 'NONE',  ( 7.000000000000000000, 8.572527594031473190E-16, 5.000000000000000000 ) ) ;
#185 = ORIENTED_EDGE ( 'NONE', *, *, #277, .T. ) ;
#186 = FACE_OUTER_BOUND ( 'NONE', #123, .T. ) ;
#187 = DIRECTION ( 'NONE',  ( 1.000000000000000000, 0.000000000000000000, 0.000000000000000000 ) ) ;
#188 = CARTESIAN_POINT ( 'NONE',  ( 0.000000000000000000, 0.000000000000000000, 165.0000000000000000 ) ) ;
#189 = CC_DESIGN_PERSON_AND_ORGANIZATION_ASSIGNMENT ( #156, #269, ( #245 ) ) ;
#190 = DIRECTION ( 'NONE',  ( 0.000000000000000000, 0.000000000000000000, 1.000000000000000000 ) ) ;
#191 = DIRECTION ( 'NONE',  ( 0.000000000000000000, 0.000000000000000000, 1.000000000000000000 ) ) ;
#192 = DATE_AND_TIME ( #195, #75 ) ;
#193 = AXIS2_PLACEMENT_3D ( 'NONE', #212, #191, #63 ) ;
#194 = EDGE_CURVE ( 'NONE', #296, #252, #84, .T. ) ;
#195 = CALENDAR_DATE ( 2022, 7, 7 ) ;
#196 = ADVANCED_FACE ( 'NONE', ( #186 ), #237, .T. ) ;
#197 = DATE_AND_TIME ( #216, #171 ) ;
#198 =( NAMED_UNIT ( * ) SI_UNIT ( $, .STERADIAN. ) SOLID_ANGLE_UNIT ( ) );
#199 = AXIS2_PLACEMENT_3D ( 'NONE', #37, #147, #227 ) ;
#200 = CC_DESIGN_PERSON_AND_ORGANIZATION_ASSIGNMENT ( #118, #96, ( #20 ) ) ;
#201 = CC_DESIGN_APPROVAL ( #298, ( #26 ) ) ;
#202 = ORIENTED_EDGE ( 'NONE', *, *, #236, .F. ) ;
#203 = ORIENTED_EDGE ( 'NONE', *, *, #78, .T. ) ;
#204 = CIRCLE ( 'NONE', #153, 4.250000000000000000 ) ;
#205 = APPROVAL_ROLE ( '' ) ;
#206 = EDGE_LOOP ( 'NONE', ( #185, #253 ) ) ;
#207 = CALENDAR_DATE ( 2022, 7, 7 ) ;
#208 = ORIENTED_EDGE ( 'NONE', *, *, #239, .F. ) ;
#209 = DIRECTION ( 'NONE',  ( 0.000000000000000000, 0.000000000000000000, 1.000000000000000000 ) ) ;
#210 = DIRECTION ( 'NONE',  ( 0.000000000000000000, 0.000000000000000000, 1.000000000000000000 ) ) ;
#211 = CC_DESIGN_DATE_AND_TIME_ASSIGNMENT ( #192, #120, ( #89 ) ) ;
#212 = CARTESIAN_POINT ( 'NONE',  ( 0.000000000000000000, 0.000000000000000000, 5.200000000000009948 ) ) ;
#213 = CARTESIAN_POINT ( 'NONE',  ( 0.000000000000000000, 0.000000000000000000, 165.0000000000000000 ) ) ;
#214 = LINE ( 'NONE', #159, #178 ) ;
#215 = DIRECTION ( 'NONE',  ( 1.000000000000000000, 0.000000000000000000, -0.000000000000000000 ) ) ;
#216 = CALENDAR_DATE ( 2022, 7, 7 ) ;
#217 = CIRCLE ( 'NONE', #282, 4.450000000000000178 ) ;
#218 = CIRCLE ( 'NONE', #3, 4.250000000000000000 ) ;
#219 = CARTESIAN_POINT ( 'NONE',  ( -4.250000000000000000, 0.000000000000000000, 5.200000000000009948 ) ) ;
#220 = PRODUCT_RELATED_PRODUCT_CATEGORY ( 'detail', '', ( #20 ) ) ;
#221 = DIRECTION ( 'NONE',  ( 0.000000000000000000, 0.000000000000000000, 1.000000000000000000 ) ) ;
#222 = EDGE_LOOP ( 'NONE', ( #12, #39, #9, #292 ) ) ;
#223 = VERTEX_POINT ( 'NONE', #258 ) ;
#224 = ADVANCED_FACE ( 'NONE', ( #45 ), #304, .T. ) ;
#225 = ORIENTED_EDGE ( 'NONE', *, *, #4, .F. ) ;
#226 = PERSON_AND_ORGANIZATION_ROLE ( 'creator' ) ;
#227 = DIRECTION ( 'NONE',  ( -1.000000000000000000, 0.000000000000000000, 0.000000000000000000 ) ) ;
#228 = ORIENTED_EDGE ( 'NONE', *, *, #112, .T. ) ;
#229 = ORIENTED_EDGE ( 'NONE', *, *, #50, .T. ) ;
#230 = PLANE ( 'NONE',  #242 ) ;
#231 = AXIS2_PLACEMENT_3D ( 'NONE', #111, #130, #115 ) ;
#232 = FACE_OUTER_BOUND ( 'NONE', #33, .T. ) ;
#233 = CIRCLE ( 'NONE', #110, 7.000000000000000000 ) ;
#234 = CARTESIAN_POINT ( 'NONE',  ( -7.000000000000000000, 0.000000000000000000, 0.000000000000000000 ) ) ;
#235 = ADVANCED_FACE ( 'NONE', ( #160 ), #161, .F. ) ;
#236 = EDGE_CURVE ( 'NONE', #223, #127, #257, .T. ) ;
#237 = CYLINDRICAL_SURFACE ( 'NONE', #300, 4.250000000000000000 ) ;
#238 = CARTESIAN_POINT ( 'NONE',  ( 0.000000000000000000, 0.000000000000000000, 5.000000000000000000 ) ) ;
#239 = EDGE_CURVE ( 'NONE', #273, #296, #204, .T. ) ;
#240 = DIRECTION ( 'NONE',  ( 0.000000000000000000, 0.000000000000000000, 1.000000000000000000 ) ) ;
#241 = APPROVAL_DATE_TIME ( #197, #117 ) ;
#242 = AXIS2_PLACEMENT_3D ( 'NONE', #90, #65, #215 ) ;
#243 = PERSON_AND_ORGANIZATION ( #11, #91 ) ;
#244 = ORIENTED_EDGE ( 'NONE', *, *, #170, .F. ) ;
#245 = PRODUCT_DEFINITION_FORMATION_WITH_SPECIFIED_SOURCE ( 'LIBOVOLNÝ', '', #20, .NOT_KNOWN. ) ;
#246 = FACE_OUTER_BOUND ( 'NONE', #10, .T. ) ;
#247 = COORDINATED_UNIVERSAL_TIME_OFFSET ( 1, 0, .AHEAD. ) ;
#248 = VECTOR ( 'NONE', #301, 1000.000000000000000 ) ;
#249 = DIRECTION ( 'NONE',  ( 0.000000000000000000, 0.000000000000000000, -1.000000000000000000 ) ) ;
#250 = AXIS2_PLACEMENT_3D ( 'NONE', #254, #209, #62 ) ;
#251 = CARTESIAN_POINT ( 'NONE',  ( 0.000000000000000000, 0.000000000000000000, 5.000000000000000000 ) ) ;
#252 = VERTEX_POINT ( 'NONE', #121 ) ;
#253 = ORIENTED_EDGE ( 'NONE', *, *, #4, .T. ) ;
#254 = CARTESIAN_POINT ( 'NONE',  ( 0.000000000000000000, 0.000000000000000000, 5.000000000000000000 ) ) ;
#255 = FACE_OUTER_BOUND ( 'NONE', #177, .T. ) ;
#256 = LOCAL_TIME ( 11, 58, 57.00000000000000000, #70 ) ;
#257 = LINE ( 'NONE', #114, #148 ) ;
#258 = CARTESIAN_POINT ( 'NONE',  ( -7.000000000000000000, 0.000000000000000000, 5.000000000000000000 ) ) ;
#259 = AXIS2_PLACEMENT_3D ( 'NONE', #41, #190, #131 ) ;
#260 = CARTESIAN_POINT ( 'NONE',  ( 4.250000000000000000, 5.204748896376250699E-16, 165.0000000000000000 ) ) ;
#261 = LOCAL_TIME ( 11, 58, 57.00000000000000000, #74 ) ;
#262 = DIRECTION ( 'NONE',  ( 0.000000000000000000, 0.000000000000000000, 1.000000000000000000 ) ) ;
#263 = TOROIDAL_SURFACE ( 'NONE', #7, 4.450000000000000178, 0.2000000000000000111 ) ;
#264 = CARTESIAN_POINT ( 'NONE',  ( 0.000000000000000000, 0.000000000000000000, 5.000000000000000000 ) ) ;
#265 = APPLICATION_PROTOCOL_DEFINITION ( 'international standard', 'config_control_design', 1994, #87 ) ;
#266 = ADVANCED_FACE ( 'NONE', ( #246 ), #263, .F. ) ;
#267 = CARTESIAN_POINT ( 'NONE',  ( 0.000000000000000000, 0.000000000000000000, 0.000000000000000000 ) ) ;
#268 = PERSON_AND_ORGANIZATION ( #11, #91 ) ;
#269 = PERSON_AND_ORGANIZATION_ROLE ( 'design_supplier' ) ;
#270 = VERTEX_POINT ( 'NONE', #288 ) ;
#271 = CIRCLE ( 'NONE', #132, 7.000000000000000000 ) ;
#272 = DATE_AND_TIME ( #151, #261 ) ;
#273 = VERTEX_POINT ( 'NONE', #2 ) ;
#274 = DIRECTION ( 'NONE',  ( 1.000000000000000000, 0.000000000000000000, 0.000000000000000000 ) ) ;
#275 = PERSON_AND_ORGANIZATION_ROLE ( 'classification_officer' ) ;
#276 = DIRECTION ( 'NONE',  ( -0.000000000000000000, -0.000000000000000000, -1.000000000000000000 ) ) ;
#277 = EDGE_CURVE ( 'NONE', #102, #252, #217, .T. ) ;
#278 = EDGE_LOOP ( 'NONE', ( #297, #150 ) ) ;
#279 = DIRECTION ( 'NONE',  ( -0.000000000000000000, -0.000000000000000000, -1.000000000000000000 ) ) ;
#280 = APPROVAL_PERSON_ORGANIZATION ( #243, #36, #286 ) ;
#281 = CARTESIAN_POINT ( 'NONE',  ( 7.000000000000000000, 8.572527594031473190E-16, 5.000000000000000000 ) ) ;
#282 = AXIS2_PLACEMENT_3D ( 'NONE', #264, #98, #6 ) ;
#283 = CARTESIAN_POINT ( 'NONE',  ( 0.000000000000000000, 0.000000000000000000, 5.000000000000000000 ) ) ;
#284 = CIRCLE ( 'NONE', #158, 4.450000000000000178 ) ;
#285 = DIRECTION ( 'NONE',  ( 1.000000000000000000, 0.000000000000000000, 0.000000000000000000 ) ) ;
#286 = APPROVAL_ROLE ( '' ) ;
#287 = APPROVAL_STATUS ( 'not_yet_approved' ) ;
#288 = CARTESIAN_POINT ( 'NONE',  ( 4.250000000000000000, 5.204748896376250699E-16, 165.0000000000000000 ) ) ;
#289 = APPLICATION_PROTOCOL_DEFINITION ( 'international standard', 'config_control_design', 1994, #101 ) ;
#290 = SECURITY_CLASSIFICATION_LEVEL ( 'unclassified' ) ;
#291 = UNCERTAINTY_MEASURE_WITH_UNIT (LENGTH_MEASURE( 1.000000000000000082E-05 ), #172, 'distance_accuracy_value', 'NONE');
#292 = ORIENTED_EDGE ( 'NONE', *, *, #302, .T. ) ;
#293 = CC_DESIGN_PERSON_AND_ORGANIZATION_ASSIGNMENT ( #176, #226, ( #245 ) ) ;
#294 = VERTEX_POINT ( 'NONE', #139 ) ;
#295 = AXIS2_PLACEMENT_3D ( 'NONE', #88, #68, #187 ) ;
#296 = VERTEX_POINT ( 'NONE', #219 ) ;
#297 = ORIENTED_EDGE ( 'NONE', *, *, #302, .F. ) ;
#298 = APPROVAL ( #105, 'NEURÈENÝ' ) ;
#299 = CARTESIAN_POINT ( 'NONE',  ( 4.450000000000000178, 0.000000000000000000, 5.200000000000009948 ) ) ;
#300 = AXIS2_PLACEMENT_3D ( 'NONE', #213, #93, #162 ) ;
#301 = DIRECTION ( 'NONE',  ( -0.000000000000000000, -0.000000000000000000, -1.000000000000000000 ) ) ;
#302 = EDGE_CURVE ( 'NONE', #127, #294, #77, .T. ) ;
#303 = PLANE ( 'NONE',  #259 ) ;
#304 = CYLINDRICAL_SURFACE ( 'NONE', #138, 7.000000000000000000 ) ;
#305 = DIRECTION ( 'NONE',  ( -0.000000000000000000, -0.000000000000000000, -1.000000000000000000 ) ) ;
#306 = LINE ( 'NONE', #260, #248 ) ;
#307 = PERSON_AND_ORGANIZATION_ROLE ( 'creator' ) ;
ENDSEC;
END-ISO-10303-21;
