ISO-10303-21;
HEADER;
FILE_DESCRIPTION (( 'STEP AP203' ),
    '1' );
FILE_NAME ('3341.STEP',
    '2022-07-07T09:49:51',
    ( '' ),
    ( '' ),
    'SwSTEP 2.0',
    'SolidWorks 2019',
    '' );
FILE_SCHEMA (( 'CONFIG_CONTROL_DESIGN' ));
ENDSEC;

DATA;
#1 = APPROVAL_STATUS ( 'not_yet_approved' ) ;
#2 = ORIENTED_EDGE ( 'NONE', *, *, #95, .T. ) ;
#3 = CLOSED_SHELL ( 'NONE', ( #26, #190, #74, #155, #273, #52, #41, #140, #211 ) ) ;
#4 = APPROVAL_PERSON_ORGANIZATION ( #167, #96, #148 ) ;
#5 = EDGE_LOOP ( 'NONE', ( #264, #81, #239, #153 ) ) ;
#6 = MECHANICAL_CONTEXT ( 'NONE', #296, 'mechanical' ) ;
#7 = EDGE_LOOP ( 'NONE', ( #2, #147 ) ) ;
#8 = DIRECTION ( 'NONE',  ( 1.000000000000000000, 0.000000000000000000, 0.000000000000000000 ) ) ;
#9 = ORIENTED_EDGE ( 'NONE', *, *, #18, .T. ) ;
#10 = AXIS2_PLACEMENT_3D ( 'NONE', #165, #43, #38 ) ;
#11 = ORIENTED_EDGE ( 'NONE', *, *, #295, .F. ) ;
#12 =( NAMED_UNIT ( * ) SI_UNIT ( $, .STERADIAN. ) SOLID_ANGLE_UNIT ( ) );
#13 =( GEOMETRIC_REPRESENTATION_CONTEXT ( 3 ) GLOBAL_UNCERTAINTY_ASSIGNED_CONTEXT ( ( #128 ) ) GLOBAL_UNIT_ASSIGNED_CONTEXT ( ( #194, #29, #12 ) ) REPRESENTATION_CONTEXT ( 'NONE', 'WORKASPACE' ) );
#14 = CYLINDRICAL_SURFACE ( 'NONE', #220, 8.000000000000000000 ) ;
#15 = DIRECTION ( 'NONE',  ( -0.000000000000000000, -0.000000000000000000, -1.000000000000000000 ) ) ;
#16 = DIRECTION ( 'NONE',  ( 1.000000000000000000, 0.000000000000000000, 0.000000000000000000 ) ) ;
#17 = DIRECTION ( 'NONE',  ( 1.000000000000000000, 0.000000000000000000, 0.000000000000000000 ) ) ;
#18 = EDGE_CURVE ( 'NONE', #213, #33, #156, .T. ) ;
#19 = EDGE_CURVE ( 'NONE', #99, #106, #180, .T. ) ;
#20 = LINE ( 'NONE', #87, #305 ) ;
#21 = CARTESIAN_POINT ( 'NONE',  ( -5.450000000000001066, 6.674325055353076224E-16, 4.999999999999991118 ) ) ;
#22 = PERSON_AND_ORGANIZATION_ROLE ( 'creator' ) ;
#23 = AXIS2_PLACEMENT_3D ( 'NONE', #85, #42, #251 ) ;
#24 = APPROVAL_DATE_TIME ( #289, #96 ) ;
#25 = EDGE_LOOP ( 'NONE', ( #28, #294, #129, #58 ) ) ;
#26 = ADVANCED_FACE ( 'NONE', ( #241 ), #119, .F. ) ;
#27 = CALENDAR_DATE ( 2022, 7, 7 ) ;
#28 = ORIENTED_EDGE ( 'NONE', *, *, #83, .F. ) ;
#29 =( NAMED_UNIT ( * ) PLANE_ANGLE_UNIT ( ) SI_UNIT ( $, .RADIAN. ) );
#30 = CC_DESIGN_SECURITY_CLASSIFICATION ( #144, ( #39 ) ) ;
#31 = DIRECTION ( 'NONE',  ( 1.000000000000000000, 0.000000000000000000, 0.000000000000000000 ) ) ;
#32 = CARTESIAN_POINT ( 'NONE',  ( 0.000000000000000000, 0.000000000000000000, 5.199999999999982414 ) ) ;
#33 = VERTEX_POINT ( 'NONE', #301 ) ;
#34 = CARTESIAN_POINT ( 'NONE',  ( 5.450000000000001066, 0.000000000000000000, 5.199999999999982414 ) ) ;
#35 = VECTOR ( 'NONE', #84, 1000.000000000000000 ) ;
#36 = PERSON ( 'NEURÈENÝ', 'NEURÈENÝ', 'NEURÈENÝ', ('NEURÈENÝ'), ('NEURÈENÝ'), ('NEURÈENÝ') ) ;
#37 = CARTESIAN_POINT ( 'NONE',  ( -8.000000000000000000, 0.000000000000000000, 5.000000000000000000 ) ) ;
#38 = DIRECTION ( 'NONE',  ( 1.000000000000000000, 0.000000000000000000, 0.000000000000000000 ) ) ;
#39 = PRODUCT_DEFINITION_FORMATION_WITH_SPECIFIED_SOURCE ( 'LIBOVOLNÝ', '', #255, .NOT_KNOWN. ) ;
#40 = DIRECTION ( 'NONE',  ( 0.000000000000000000, 0.000000000000000000, 1.000000000000000000 ) ) ;
#41 = ADVANCED_FACE ( 'NONE', ( #254 ), #281, .T. ) ;
#42 = DIRECTION ( 'NONE',  ( -0.000000000000000000, -0.000000000000000000, -1.000000000000000000 ) ) ;
#43 = DIRECTION ( 'NONE',  ( 0.000000000000000000, 0.000000000000000000, 1.000000000000000000 ) ) ;
#44 = PERSON_AND_ORGANIZATION_ROLE ( 'classification_officer' ) ;
#45 = PERSON_AND_ORGANIZATION ( #36, #50 ) ;
#46 = AXIS2_PLACEMENT_3D ( 'NONE', #228, #112, #303 ) ;
#47 = CARTESIAN_POINT ( 'NONE',  ( 0.000000000000000000, 0.000000000000000000, 0.000000000000000000 ) ) ;
#48 = PRODUCT_DEFINITION ( 'NEZNÁMÝ', '', #39, #101 ) ;
#49 = DATE_AND_TIME ( #118, #225 ) ;
#50 = ORGANIZATION ( 'NEURÈENÝ', 'NEURÈENÝ', '' ) ;
#51 = ORIENTED_EDGE ( 'NONE', *, *, #237, .F. ) ;
#52 = ADVANCED_FACE ( 'NONE', ( #298 ), #137, .F. ) ;
#53 = CALENDAR_DATE ( 2022, 7, 7 ) ;
#54 = DIRECTION ( 'NONE',  ( 1.000000000000000000, 0.000000000000000000, 0.000000000000000000 ) ) ;
#55 = DIRECTION ( 'NONE',  ( -0.000000000000000000, -0.000000000000000000, -1.000000000000000000 ) ) ;
#56 = ORIENTED_EDGE ( 'NONE', *, *, #108, .F. ) ;
#57 = APPROVAL_PERSON_ORGANIZATION ( #261, #247, #258 ) ;
#58 = ORIENTED_EDGE ( 'NONE', *, *, #203, .F. ) ;
#59 = PLANE ( 'NONE',  #184 ) ;
#60 = CARTESIAN_POINT ( 'NONE',  ( -5.450000000000001066, 6.674325055353076224E-16, 5.199999999999982414 ) ) ;
#61 = AXIS2_PLACEMENT_3D ( 'NONE', #181, #88, #185 ) ;
#62 = DIRECTION ( 'NONE',  ( 0.000000000000000000, 0.000000000000000000, 1.000000000000000000 ) ) ;
#63 = CC_DESIGN_PERSON_AND_ORGANIZATION_ASSIGNMENT ( #186, #166, ( #255 ) ) ;
#64 = DIRECTION ( 'NONE',  ( -0.000000000000000000, -0.000000000000000000, -1.000000000000000000 ) ) ;
#65 = EDGE_CURVE ( 'NONE', #76, #139, #284, .T. ) ;
#66 = CIRCLE ( 'NONE', #236, 0.1999999999999996503 ) ;
#67 = CYLINDRICAL_SURFACE ( 'NONE', #159, 8.000000000000000000 ) ;
#68 = CARTESIAN_POINT ( 'NONE',  ( 0.000000000000000000, 0.000000000000000000, 635.0000000000000000 ) ) ;
#69 = LOCAL_TIME ( 11, 49, 51.00000000000000000, #72 ) ;
#70 = APPLICATION_PROTOCOL_DEFINITION ( 'international standard', 'config_control_design', 1994, #296 ) ;
#71 = AXIS2_PLACEMENT_3D ( 'NONE', #276, #62, #160 ) ;
#72 = COORDINATED_UNIVERSAL_TIME_OFFSET ( 1, 0, .AHEAD. ) ;
#73 = ORIENTED_EDGE ( 'NONE', *, *, #163, .F. ) ;
#74 = ADVANCED_FACE ( 'NONE', ( #304 ), #67, .T. ) ;
#75 = APPROVAL ( #231, 'NEURÈENÝ' ) ;
#76 = VERTEX_POINT ( 'NONE', #206 ) ;
#77 = PERSON_AND_ORGANIZATION ( #36, #50 ) ;
#78 = ORIENTED_EDGE ( 'NONE', *, *, #121, .F. ) ;
#79 = AXIS2_PLACEMENT_3D ( 'NONE', #32, #222, #105 ) ;
#80 = LINE ( 'NONE', #37, #279 ) ;
#81 = ORIENTED_EDGE ( 'NONE', *, *, #19, .F. ) ;
#82 = CARTESIAN_POINT ( 'NONE',  ( 0.000000000000000000, 0.000000000000000000, 5.199999999999982414 ) ) ;
#83 = EDGE_CURVE ( 'NONE', #196, #293, #91, .T. ) ;
#84 = DIRECTION ( 'NONE',  ( -0.000000000000000000, -0.000000000000000000, -1.000000000000000000 ) ) ;
#85 = CARTESIAN_POINT ( 'NONE',  ( 0.000000000000000000, 0.000000000000000000, 5.000000000000000000 ) ) ;
#86 = AXIS2_PLACEMENT_3D ( 'NONE', #114, #107, #199 ) ;
#87 = CARTESIAN_POINT ( 'NONE',  ( 8.000000000000000000, 9.797174393178825657E-16, 5.000000000000000000 ) ) ;
#88 = DIRECTION ( 'NONE',  ( 0.000000000000000000, 0.000000000000000000, 1.000000000000000000 ) ) ;
#89 = ORIENTED_EDGE ( 'NONE', *, *, #121, .T. ) ;
#90 = CARTESIAN_POINT ( 'NONE',  ( 0.000000000000000000, 0.000000000000000000, 0.000000000000000000 ) ) ;
#91 = CIRCLE ( 'NONE', #46, 5.250000000000000888 ) ;
#92 = SHAPE_DEFINITION_REPRESENTATION ( #248, #109 ) ;
#93 = EDGE_CURVE ( 'NONE', #270, #149, #187, .T. ) ;
#94 = APPROVAL_DATE_TIME ( #122, #75 ) ;
#95 = EDGE_CURVE ( 'NONE', #293, #196, #157, .T. ) ;
#96 = APPROVAL ( #262, 'NEURÈENÝ' ) ;
#97 = EDGE_LOOP ( 'NONE', ( #56, #245 ) ) ;
#98 = COORDINATED_UNIVERSAL_TIME_OFFSET ( 1, 0, .AHEAD. ) ;
#99 = VERTEX_POINT ( 'NONE', #141 ) ;
#100 = APPLICATION_PROTOCOL_DEFINITION ( 'international standard', 'config_control_design', 1994, #218 ) ;
#101 = DESIGN_CONTEXT ( 'detailed design', #218, 'design' ) ;
#102 = DIRECTION ( 'NONE',  ( -1.000000000000000000, 1.224646799147353454E-16, 0.000000000000000000 ) ) ;
#103 = ORIENTED_EDGE ( 'NONE', *, *, #95, .F. ) ;
#104 = AXIS2_PLACEMENT_3D ( 'NONE', #162, #138, #16 ) ;
#105 = DIRECTION ( 'NONE',  ( 1.000000000000000000, 0.000000000000000000, 0.000000000000000000 ) ) ;
#106 = VERTEX_POINT ( 'NONE', #227 ) ;
#107 = DIRECTION ( 'NONE',  ( -0.000000000000000000, -0.000000000000000000, -1.000000000000000000 ) ) ;
#108 = EDGE_CURVE ( 'NONE', #139, #76, #277, .T. ) ;
#109 = ADVANCED_BREP_SHAPE_REPRESENTATION ( '3341', ( #265, #223 ), #13 ) ;
#110 = DIRECTION ( 'NONE',  ( 1.000000000000000000, 0.000000000000000000, 0.000000000000000000 ) ) ;
#111 = LINE ( 'NONE', #178, #35 ) ;
#112 = DIRECTION ( 'NONE',  ( 0.000000000000000000, 0.000000000000000000, 1.000000000000000000 ) ) ;
#113 = AXIS2_PLACEMENT_3D ( 'NONE', #68, #179, #135 ) ;
#114 = CARTESIAN_POINT ( 'NONE',  ( 0.000000000000000000, 0.000000000000000000, 5.000000000000000000 ) ) ;
#115 = CARTESIAN_POINT ( 'NONE',  ( 0.000000000000000000, 0.000000000000000000, 5.000000000000000000 ) ) ;
#116 = DIRECTION ( 'NONE',  ( 0.000000000000000000, 0.000000000000000000, 1.000000000000000000 ) ) ;
#117 = CC_DESIGN_PERSON_AND_ORGANIZATION_ASSIGNMENT ( #77, #235, ( #39 ) ) ;
#118 = CALENDAR_DATE ( 2022, 7, 7 ) ;
#119 = TOROIDAL_SURFACE ( 'NONE', #10, 5.450000000000001066, 0.2000000000000000111 ) ;
#120 = PERSON_AND_ORGANIZATION ( #36, #50 ) ;
#121 = EDGE_CURVE ( 'NONE', #33, #76, #20, .T. ) ;
#122 = DATE_AND_TIME ( #27, #287 ) ;
#123 = CC_DESIGN_APPROVAL ( #96, ( #39 ) ) ;
#124 = ORIENTED_EDGE ( 'NONE', *, *, #65, .T. ) ;
#125 = ORIENTED_EDGE ( 'NONE', *, *, #18, .F. ) ;
#126 = FACE_OUTER_BOUND ( 'NONE', #5, .T. ) ;
#127 = CARTESIAN_POINT ( 'NONE',  ( 0.000000000000000000, 0.000000000000000000, 5.000000000000000000 ) ) ;
#128 = UNCERTAINTY_MEASURE_WITH_UNIT (LENGTH_MEASURE( 1.000000000000000082E-05 ), #194, 'distance_accuracy_value', 'NONE');
#129 = ORIENTED_EDGE ( 'NONE', *, *, #19, .T. ) ;
#130 = CIRCLE ( 'NONE', #202, 5.250000000000000888 ) ;
#131 = DIRECTION ( 'NONE',  ( -0.000000000000000000, -0.000000000000000000, -1.000000000000000000 ) ) ;
#132 = CC_DESIGN_DATE_AND_TIME_ASSIGNMENT ( #192, #307, ( #48 ) ) ;
#133 = CIRCLE ( 'NONE', #233, 0.1999999999999996503 ) ;
#134 = DIRECTION ( 'NONE',  ( 0.000000000000000000, 0.000000000000000000, 1.000000000000000000 ) ) ;
#135 = DIRECTION ( 'NONE',  ( -1.000000000000000000, 0.000000000000000000, 0.000000000000000000 ) ) ;
#136 = CC_DESIGN_APPROVAL ( #247, ( #48 ) ) ;
#137 = PLANE ( 'NONE',  #249 ) ;
#138 = DIRECTION ( 'NONE',  ( 0.000000000000000000, 0.000000000000000000, 1.000000000000000000 ) ) ;
#139 = VERTEX_POINT ( 'NONE', #229 ) ;
#140 = ADVANCED_FACE ( 'NONE', ( #201 ), #299, .T. ) ;
#141 = CARTESIAN_POINT ( 'NONE',  ( 5.250000000000000888, 6.429395695523605139E-16, 5.199999999999982414 ) ) ;
#142 = SECURITY_CLASSIFICATION_LEVEL ( 'unclassified' ) ;
#143 = AXIS2_PLACEMENT_3D ( 'NONE', #90, #280, #110 ) ;
#144 = SECURITY_CLASSIFICATION ( '', '', #142 ) ;
#145 = APPROVAL_DATE_TIME ( #49, #247 ) ;
#146 = CALENDAR_DATE ( 2022, 7, 7 ) ;
#147 = ORIENTED_EDGE ( 'NONE', *, *, #83, .T. ) ;
#148 = APPROVAL_ROLE ( '' ) ;
#149 = VERTEX_POINT ( 'NONE', #21 ) ;
#150 = DIRECTION ( 'NONE',  ( 1.000000000000000000, 0.000000000000000000, -0.000000000000000000 ) ) ;
#151 = EDGE_LOOP ( 'NONE', ( #78, #125, #232, #215 ) ) ;
#152 = FACE_BOUND ( 'NONE', #268, .T. ) ;
#153 = ORIENTED_EDGE ( 'NONE', *, *, #182, .F. ) ;
#154 = CARTESIAN_POINT ( 'NONE',  ( -5.250000000000000888, 0.000000000000000000, 635.0000000000000000 ) ) ;
#155 = ADVANCED_FACE ( 'NONE', ( #204 ), #14, .T. ) ;
#156 = CIRCLE ( 'NONE', #292, 8.000000000000000000 ) ;
#157 = CIRCLE ( 'NONE', #104, 5.250000000000000888 ) ;
#158 = FACE_OUTER_BOUND ( 'NONE', #175, .T. ) ;
#159 = AXIS2_PLACEMENT_3D ( 'NONE', #115, #205, #200 ) ;
#160 = DIRECTION ( 'NONE',  ( 1.000000000000000000, 0.000000000000000000, 0.000000000000000000 ) ) ;
#161 = DIRECTION ( 'NONE',  ( -0.000000000000000000, -0.000000000000000000, -1.000000000000000000 ) ) ;
#162 = CARTESIAN_POINT ( 'NONE',  ( 0.000000000000000000, 0.000000000000000000, 635.0000000000000000 ) ) ;
#163 = EDGE_CURVE ( 'NONE', #33, #213, #300, .T. ) ;
#164 = PRODUCT_RELATED_PRODUCT_CATEGORY ( 'detail', '', ( #255 ) ) ;
#165 = CARTESIAN_POINT ( 'NONE',  ( 0.000000000000000000, 0.000000000000000000, 5.199999999999982414 ) ) ;
#166 = PERSON_AND_ORGANIZATION_ROLE ( 'design_owner' ) ;
#167 = PERSON_AND_ORGANIZATION ( #36, #50 ) ;
#168 = AXIS2_PLACEMENT_3D ( 'NONE', #256, #40, #17 ) ;
#169 = ORIENTED_EDGE ( 'NONE', *, *, #203, .T. ) ;
#170 = COORDINATED_UNIVERSAL_TIME_OFFSET ( 1, 0, .AHEAD. ) ;
#171 = CARTESIAN_POINT ( 'NONE',  ( 0.000000000000000000, 0.000000000000000000, 5.199999999999982414 ) ) ;
#172 = CC_DESIGN_PERSON_AND_ORGANIZATION_ASSIGNMENT ( #120, #44, ( #144 ) ) ;
#173 = ORIENTED_EDGE ( 'NONE', *, *, #237, .T. ) ;
#174 = CARTESIAN_POINT ( 'NONE',  ( -8.000000000000000000, 0.000000000000000000, 5.000000000000000000 ) ) ;
#175 = EDGE_LOOP ( 'NONE', ( #9, #217 ) ) ;
#176 = CARTESIAN_POINT ( 'NONE',  ( 5.450000000000001066, 0.000000000000000000, 4.999999999999991118 ) ) ;
#177 = LOCAL_TIME ( 11, 49, 51.00000000000000000, #98 ) ;
#178 = CARTESIAN_POINT ( 'NONE',  ( -5.250000000000000888, 0.000000000000000000, 635.0000000000000000 ) ) ;
#179 = DIRECTION ( 'NONE',  ( -0.000000000000000000, -0.000000000000000000, -1.000000000000000000 ) ) ;
#180 = CIRCLE ( 'NONE', #195, 5.250000000000000888 ) ;
#181 = CARTESIAN_POINT ( 'NONE',  ( 0.000000000000000000, 0.000000000000000000, 635.0000000000000000 ) ) ;
#182 = EDGE_CURVE ( 'NONE', #149, #270, #207, .T. ) ;
#183 = CARTESIAN_POINT ( 'NONE',  ( 0.000000000000000000, 0.000000000000000000, 0.000000000000000000 ) ) ;
#184 = AXIS2_PLACEMENT_3D ( 'NONE', #267, #269, #150 ) ;
#185 = DIRECTION ( 'NONE',  ( 1.000000000000000000, 0.000000000000000000, -0.000000000000000000 ) ) ;
#186 = PERSON_AND_ORGANIZATION ( #36, #50 ) ;
#187 = CIRCLE ( 'NONE', #23, 5.450000000000001066 ) ;
#188 = ORIENTED_EDGE ( 'NONE', *, *, #272, .T. ) ;
#189 = APPROVAL_ROLE ( '' ) ;
#190 = ADVANCED_FACE ( 'NONE', ( #297 ), #275, .T. ) ;
#191 = EDGE_LOOP ( 'NONE', ( #51, #188, #290, #221 ) ) ;
#192 = DATE_AND_TIME ( #146, #177 ) ;
#193 = EDGE_LOOP ( 'NONE', ( #73, #89, #124, #242 ) ) ;
#194 =( LENGTH_UNIT ( ) NAMED_UNIT ( * ) SI_UNIT ( .MILLI., .METRE. ) );
#195 = AXIS2_PLACEMENT_3D ( 'NONE', #171, #266, #54 ) ;
#196 = VERTEX_POINT ( 'NONE', #197 ) ;
#197 = CARTESIAN_POINT ( 'NONE',  ( 5.250000000000000888, 6.429395695523605139E-16, 635.0000000000000000 ) ) ;
#198 = EDGE_LOOP ( 'NONE', ( #11, #103, #169, #173 ) ) ;
#199 = DIRECTION ( 'NONE',  ( 1.000000000000000000, 0.000000000000000000, 0.000000000000000000 ) ) ;
#200 = DIRECTION ( 'NONE',  ( -1.000000000000000000, 0.000000000000000000, 0.000000000000000000 ) ) ;
#201 = FACE_OUTER_BOUND ( 'NONE', #7, .T. ) ;
#202 = AXIS2_PLACEMENT_3D ( 'NONE', #82, #134, #8 ) ;
#203 = EDGE_CURVE ( 'NONE', #293, #106, #111, .T. ) ;
#204 = FACE_OUTER_BOUND ( 'NONE', #151, .T. ) ;
#205 = DIRECTION ( 'NONE',  ( -0.000000000000000000, -0.000000000000000000, -1.000000000000000000 ) ) ;
#206 = CARTESIAN_POINT ( 'NONE',  ( 8.000000000000000000, 9.797174393178825657E-16, 0.000000000000000000 ) ) ;
#207 = CIRCLE ( 'NONE', #86, 5.450000000000001066 ) ;
#208 = DATE_AND_TIME ( #53, #69 ) ;
#209 = PERSON_AND_ORGANIZATION_ROLE ( 'design_supplier' ) ;
#210 = PERSON_AND_ORGANIZATION ( #36, #50 ) ;
#211 = ADVANCED_FACE ( 'NONE', ( #126 ), #246, .F. ) ;
#212 = CC_DESIGN_PERSON_AND_ORGANIZATION_ASSIGNMENT ( #240, #209, ( #39 ) ) ;
#213 = VERTEX_POINT ( 'NONE', #174 ) ;
#214 = LOCAL_TIME ( 11, 49, 51.00000000000000000, #306 ) ;
#215 = ORIENTED_EDGE ( 'NONE', *, *, #108, .T. ) ;
#216 = DIRECTION ( 'NONE',  ( 1.224646799147353207E-16, 1.000000000000000000, -0.000000000000000000 ) ) ;
#217 = ORIENTED_EDGE ( 'NONE', *, *, #163, .T. ) ;
#218 = APPLICATION_CONTEXT ( 'configuration controlled 3d designs of mechanical parts and assemblies' ) ;
#219 = LINE ( 'NONE', #250, #252 ) ;
#220 = AXIS2_PLACEMENT_3D ( 'NONE', #278, #161, #253 ) ;
#221 = ORIENTED_EDGE ( 'NONE', *, *, #282, .F. ) ;
#222 = DIRECTION ( 'NONE',  ( 0.000000000000000000, 0.000000000000000000, 1.000000000000000000 ) ) ;
#223 = AXIS2_PLACEMENT_3D ( 'NONE', #47, #234, #283 ) ;
#224 = DIRECTION ( 'NONE',  ( 0.000000000000000000, 0.000000000000000000, -1.000000000000000000 ) ) ;
#225 = LOCAL_TIME ( 11, 49, 51.00000000000000000, #238 ) ;
#226 = DIRECTION ( 'NONE',  ( 1.000000000000000000, 0.000000000000000000, -0.000000000000000000 ) ) ;
#227 = CARTESIAN_POINT ( 'NONE',  ( -5.250000000000000888, 0.000000000000000000, 5.199999999999982414 ) ) ;
#228 = CARTESIAN_POINT ( 'NONE',  ( 0.000000000000000000, 0.000000000000000000, 635.0000000000000000 ) ) ;
#229 = CARTESIAN_POINT ( 'NONE',  ( -8.000000000000000000, 0.000000000000000000, 0.000000000000000000 ) ) ;
#230 = CC_DESIGN_APPROVAL ( #75, ( #144 ) ) ;
#231 = APPROVAL_STATUS ( 'not_yet_approved' ) ;
#232 = ORIENTED_EDGE ( 'NONE', *, *, #302, .T. ) ;
#233 = AXIS2_PLACEMENT_3D ( 'NONE', #60, #216, #102 ) ;
#234 = DIRECTION ( 'NONE',  ( 0.000000000000000000, 0.000000000000000000, 1.000000000000000000 ) ) ;
#235 = PERSON_AND_ORGANIZATION_ROLE ( 'creator' ) ;
#236 = AXIS2_PLACEMENT_3D ( 'NONE', #34, #291, #224 ) ;
#237 = EDGE_CURVE ( 'NONE', #106, #99, #130, .T. ) ;
#238 = COORDINATED_UNIVERSAL_TIME_OFFSET ( 1, 0, .AHEAD. ) ;
#239 = ORIENTED_EDGE ( 'NONE', *, *, #282, .T. ) ;
#240 = PERSON_AND_ORGANIZATION ( #36, #50 ) ;
#241 = FACE_OUTER_BOUND ( 'NONE', #191, .T. ) ;
#242 = ORIENTED_EDGE ( 'NONE', *, *, #302, .F. ) ;
#243 = APPROVAL_PERSON_ORGANIZATION ( #45, #75, #189 ) ;
#244 = CARTESIAN_POINT ( 'NONE',  ( 0.000000000000000000, 0.000000000000000000, 635.0000000000000000 ) ) ;
#245 = ORIENTED_EDGE ( 'NONE', *, *, #65, .F. ) ;
#246 = TOROIDAL_SURFACE ( 'NONE', #79, 5.450000000000001066, 0.2000000000000000111 ) ;
#247 = APPROVAL ( #1, 'NEURÈENÝ' ) ;
#248 = PRODUCT_DEFINITION_SHAPE ( 'NONE', 'NONE',  #48 ) ;
#249 = AXIS2_PLACEMENT_3D ( 'NONE', #183, #116, #226 ) ;
#250 = CARTESIAN_POINT ( 'NONE',  ( 5.250000000000000888, 6.429395695523605139E-16, 635.0000000000000000 ) ) ;
#251 = DIRECTION ( 'NONE',  ( 1.000000000000000000, 0.000000000000000000, 0.000000000000000000 ) ) ;
#252 = VECTOR ( 'NONE', #55, 1000.000000000000000 ) ;
#253 = DIRECTION ( 'NONE',  ( -1.000000000000000000, 0.000000000000000000, 0.000000000000000000 ) ) ;
#254 = FACE_OUTER_BOUND ( 'NONE', #198, .T. ) ;
#255 = PRODUCT ( '3341', '3341', '', ( #6 ) ) ;
#256 = CARTESIAN_POINT ( 'NONE',  ( 0.000000000000000000, 0.000000000000000000, 5.000000000000000000 ) ) ;
#257 = CALENDAR_DATE ( 2022, 7, 7 ) ;
#258 = APPROVAL_ROLE ( '' ) ;
#259 = CC_DESIGN_PERSON_AND_ORGANIZATION_ASSIGNMENT ( #210, #22, ( #48 ) ) ;
#260 = AXIS2_PLACEMENT_3D ( 'NONE', #244, #131, #271 ) ;
#261 = PERSON_AND_ORGANIZATION ( #36, #50 ) ;
#262 = APPROVAL_STATUS ( 'not_yet_approved' ) ;
#263 = ORIENTED_EDGE ( 'NONE', *, *, #182, .T. ) ;
#264 = ORIENTED_EDGE ( 'NONE', *, *, #272, .F. ) ;
#265 = MANIFOLD_SOLID_BREP ( 'Zaoblit1', #3 ) ;
#266 = DIRECTION ( 'NONE',  ( 0.000000000000000000, 0.000000000000000000, 1.000000000000000000 ) ) ;
#267 = CARTESIAN_POINT ( 'NONE',  ( 0.000000000000000000, 0.000000000000000000, 5.000000000000000000 ) ) ;
#268 = EDGE_LOOP ( 'NONE', ( #285, #263 ) ) ;
#269 = DIRECTION ( 'NONE',  ( 0.000000000000000000, 0.000000000000000000, 1.000000000000000000 ) ) ;
#270 = VERTEX_POINT ( 'NONE', #176 ) ;
#271 = DIRECTION ( 'NONE',  ( -1.000000000000000000, 0.000000000000000000, 0.000000000000000000 ) ) ;
#272 = EDGE_CURVE ( 'NONE', #106, #149, #133, .T. ) ;
#273 = ADVANCED_FACE ( 'NONE', ( #152, #158 ), #59, .T. ) ;
#274 = CC_DESIGN_DATE_AND_TIME_ASSIGNMENT ( #208, #286, ( #144 ) ) ;
#275 = CYLINDRICAL_SURFACE ( 'NONE', #260, 5.250000000000000888 ) ;
#276 = CARTESIAN_POINT ( 'NONE',  ( 0.000000000000000000, 0.000000000000000000, 0.000000000000000000 ) ) ;
#277 = CIRCLE ( 'NONE', #71, 8.000000000000000000 ) ;
#278 = CARTESIAN_POINT ( 'NONE',  ( 0.000000000000000000, 0.000000000000000000, 5.000000000000000000 ) ) ;
#279 = VECTOR ( 'NONE', #15, 1000.000000000000000 ) ;
#280 = DIRECTION ( 'NONE',  ( 0.000000000000000000, 0.000000000000000000, 1.000000000000000000 ) ) ;
#281 = CYLINDRICAL_SURFACE ( 'NONE', #113, 5.250000000000000888 ) ;
#282 = EDGE_CURVE ( 'NONE', #99, #270, #66, .T. ) ;
#283 = DIRECTION ( 'NONE',  ( 1.000000000000000000, 0.000000000000000000, 0.000000000000000000 ) ) ;
#284 = CIRCLE ( 'NONE', #143, 8.000000000000000000 ) ;
#285 = ORIENTED_EDGE ( 'NONE', *, *, #93, .T. ) ;
#286 = DATE_TIME_ROLE ( 'classification_date' ) ;
#287 = LOCAL_TIME ( 11, 49, 51.00000000000000000, #170 ) ;
#288 = DIRECTION ( 'NONE',  ( 0.000000000000000000, 0.000000000000000000, 1.000000000000000000 ) ) ;
#289 = DATE_AND_TIME ( #257, #214 ) ;
#290 = ORIENTED_EDGE ( 'NONE', *, *, #93, .F. ) ;
#291 = DIRECTION ( 'NONE',  ( 0.000000000000000000, -1.000000000000000000, 0.000000000000000000 ) ) ;
#292 = AXIS2_PLACEMENT_3D ( 'NONE', #127, #288, #31 ) ;
#293 = VERTEX_POINT ( 'NONE', #154 ) ;
#294 = ORIENTED_EDGE ( 'NONE', *, *, #295, .T. ) ;
#295 = EDGE_CURVE ( 'NONE', #196, #99, #219, .T. ) ;
#296 = APPLICATION_CONTEXT ( 'configuration controlled 3d designs of mechanical parts and assemblies' ) ;
#297 = FACE_OUTER_BOUND ( 'NONE', #25, .T. ) ;
#298 = FACE_OUTER_BOUND ( 'NONE', #97, .T. ) ;
#299 = PLANE ( 'NONE',  #61 ) ;
#300 = CIRCLE ( 'NONE', #168, 8.000000000000000000 ) ;
#301 = CARTESIAN_POINT ( 'NONE',  ( 8.000000000000000000, 9.797174393178825657E-16, 5.000000000000000000 ) ) ;
#302 = EDGE_CURVE ( 'NONE', #213, #139, #80, .T. ) ;
#303 = DIRECTION ( 'NONE',  ( 1.000000000000000000, 0.000000000000000000, 0.000000000000000000 ) ) ;
#304 = FACE_OUTER_BOUND ( 'NONE', #193, .T. ) ;
#305 = VECTOR ( 'NONE', #64, 1000.000000000000000 ) ;
#306 = COORDINATED_UNIVERSAL_TIME_OFFSET ( 1, 0, .AHEAD. ) ;
#307 = DATE_TIME_ROLE ( 'creation_date' ) ;
ENDSEC;
END-ISO-10303-21;
