ISO-10303-21;
HEADER;
FILE_DESCRIPTION (( 'STEP AP203' ),
    '1' );
FILE_NAME ('e5d8.STEP',
    '2022-07-07T09:52:55',
    ( '' ),
    ( '' ),
    'SwSTEP 2.0',
    'SolidWorks 2019',
    '' );
FILE_SCHEMA (( 'CONFIG_CONTROL_DESIGN' ));
ENDSEC;

DATA;
#1 = DIRECTION ( 'NONE',  ( -0.000000000000000000, -0.000000000000000000, -1.000000000000000000 ) ) ;
#2 = DIRECTION ( 'NONE',  ( 1.000000000000000000, 0.000000000000000000, 0.000000000000000000 ) ) ;
#3 =( NAMED_UNIT ( * ) PLANE_ANGLE_UNIT ( ) SI_UNIT ( $, .RADIAN. ) );
#4 = DIRECTION ( 'NONE',  ( 0.000000000000000000, 0.000000000000000000, 1.000000000000000000 ) ) ;
#5 = EDGE_CURVE ( 'NONE', #137, #10, #76, .T. ) ;
#6 = ORIENTED_EDGE ( 'NONE', *, *, #135, .F. ) ;
#7 = DIRECTION ( 'NONE',  ( -0.000000000000000000, -0.000000000000000000, -1.000000000000000000 ) ) ;
#8 = CIRCLE ( 'NONE', #267, 5.100000000000001421 ) ;
#9 = COORDINATED_UNIVERSAL_TIME_OFFSET ( 1, 0, .AHEAD. ) ;
#10 = VERTEX_POINT ( 'NONE', #217 ) ;
#11 = DIRECTION ( 'NONE',  ( 1.000000000000000000, 0.000000000000000000, 0.000000000000000000 ) ) ;
#12 = DIRECTION ( 'NONE',  ( 1.000000000000000000, 0.000000000000000000, 0.000000000000000000 ) ) ;
#13 = AXIS2_PLACEMENT_3D ( 'NONE', #284, #128, #199 ) ;
#14 = CALENDAR_DATE ( 2022, 7, 7 ) ;
#15 = EDGE_CURVE ( 'NONE', #230, #222, #101, .T. ) ;
#16 = CC_DESIGN_APPROVAL ( #87, ( #52 ) ) ;
#17 = VERTEX_POINT ( 'NONE', #169 ) ;
#18 = EDGE_LOOP ( 'NONE', ( #117, #71, #180, #279 ) ) ;
#19 = CARTESIAN_POINT ( 'NONE',  ( 5.100000000000001421, 6.245698675651502811E-16, 165.0000000000000000 ) ) ;
#20 = VECTOR ( 'NONE', #171, 1000.000000000000000 ) ;
#21 = CARTESIAN_POINT ( 'NONE',  ( 8.000000000000000000, 9.797174393178825657E-16, 0.000000000000000000 ) ) ;
#22 = FACE_OUTER_BOUND ( 'NONE', #274, .T. ) ;
#23 = CARTESIAN_POINT ( 'NONE',  ( -5.100000000000001421, 0.000000000000000000, 165.0000000000000000 ) ) ;
#24 = FACE_OUTER_BOUND ( 'NONE', #86, .T. ) ;
#25 = ORIENTED_EDGE ( 'NONE', *, *, #43, .F. ) ;
#26 = CARTESIAN_POINT ( 'NONE',  ( 0.000000000000000000, 0.000000000000000000, 165.0000000000000000 ) ) ;
#27 = APPROVAL_PERSON_ORGANIZATION ( #229, #87, #88 ) ;
#28 = DATE_AND_TIME ( #156, #183 ) ;
#29 = VERTEX_POINT ( 'NONE', #23 ) ;
#30 = DIRECTION ( 'NONE',  ( -0.000000000000000000, -0.000000000000000000, -1.000000000000000000 ) ) ;
#31 = DATE_AND_TIME ( #278, #215 ) ;
#32 = ORIENTED_EDGE ( 'NONE', *, *, #135, .T. ) ;
#33 = CYLINDRICAL_SURFACE ( 'NONE', #42, 8.000000000000000000 ) ;
#34 = DATE_TIME_ROLE ( 'creation_date' ) ;
#35 = APPLICATION_PROTOCOL_DEFINITION ( 'international standard', 'config_control_design', 1994, #276 ) ;
#36 = EDGE_CURVE ( 'NONE', #222, #302, #303, .T. ) ;
#37 = ADVANCED_FACE ( 'NONE', ( #239 ), #194, .F. ) ;
#38 = APPROVAL_DATE_TIME ( #221, #87 ) ;
#39 = SECURITY_CLASSIFICATION ( '', '', #134 ) ;
#40 = APPROVAL_DATE_TIME ( #63, #59 ) ;
#41 = ORIENTED_EDGE ( 'NONE', *, *, #266, .F. ) ;
#42 = AXIS2_PLACEMENT_3D ( 'NONE', #111, #7, #289 ) ;
#43 = EDGE_CURVE ( 'NONE', #17, #187, #55, .T. ) ;
#44 = DIRECTION ( 'NONE',  ( -0.000000000000000000, -0.000000000000000000, -1.000000000000000000 ) ) ;
#45 = FACE_OUTER_BOUND ( 'NONE', #79, .T. ) ;
#46 = DIRECTION ( 'NONE',  ( 1.000000000000000000, 0.000000000000000000, 0.000000000000000000 ) ) ;
#47 = CC_DESIGN_DATE_AND_TIME_ASSIGNMENT ( #31, #269, ( #39 ) ) ;
#48 = PLANE ( 'NONE',  #123 ) ;
#49 = DIRECTION ( 'NONE',  ( -1.000000000000000000, 0.000000000000000000, 0.000000000000000000 ) ) ;
#50 = ORGANIZATION ( 'NEURÈENÝ', 'NEURÈENÝ', '' ) ;
#51 = FACE_OUTER_BOUND ( 'NONE', #162, .T. ) ;
#52 = PRODUCT_DEFINITION_FORMATION_WITH_SPECIFIED_SOURCE ( 'LIBOVOLNÝ', '', #141, .NOT_KNOWN. ) ;
#53 = DIRECTION ( 'NONE',  ( -0.000000000000000000, -0.000000000000000000, -1.000000000000000000 ) ) ;
#54 = FACE_OUTER_BOUND ( 'NONE', #225, .T. ) ;
#55 = CIRCLE ( 'NONE', #68, 5.100000000000001421 ) ;
#56 = APPROVAL_STATUS ( 'not_yet_approved' ) ;
#57 = ORIENTED_EDGE ( 'NONE', *, *, #43, .T. ) ;
#58 = DIRECTION ( 'NONE',  ( 0.000000000000000000, -1.000000000000000000, 0.000000000000000000 ) ) ;
#59 = APPROVAL ( #56, 'NEURÈENÝ' ) ;
#60 = MECHANICAL_CONTEXT ( 'NONE', #243, 'mechanical' ) ;
#61 = ORIENTED_EDGE ( 'NONE', *, *, #129, .F. ) ;
#62 = ADVANCED_FACE ( 'NONE', ( #51 ), #48, .T. ) ;
#63 = DATE_AND_TIME ( #297, #202 ) ;
#64 = VECTOR ( 'NONE', #237, 1000.000000000000000 ) ;
#65 = PERSON_AND_ORGANIZATION ( #277, #50 ) ;
#66 = UNCERTAINTY_MEASURE_WITH_UNIT (LENGTH_MEASURE( 1.000000000000000082E-05 ), #170, 'distance_accuracy_value', 'NONE');
#67 = PERSON_AND_ORGANIZATION ( #277, #50 ) ;
#68 = AXIS2_PLACEMENT_3D ( 'NONE', #263, #4, #122 ) ;
#69 = ORIENTED_EDGE ( 'NONE', *, *, #218, .F. ) ;
#70 = CC_DESIGN_APPROVAL ( #59, ( #39 ) ) ;
#71 = ORIENTED_EDGE ( 'NONE', *, *, #15, .T. ) ;
#72 = AXIS2_PLACEMENT_3D ( 'NONE', #294, #53, #80 ) ;
#73 = ADVANCED_FACE ( 'NONE', ( #103 ), #149, .F. ) ;
#74 = CARTESIAN_POINT ( 'NONE',  ( 8.000000000000000000, 9.797174393178825657E-16, 5.000000000000000000 ) ) ;
#75 = DIRECTION ( 'NONE',  ( -0.000000000000000000, -0.000000000000000000, -1.000000000000000000 ) ) ;
#76 = CIRCLE ( 'NONE', #72, 5.300000000000000711 ) ;
#77 = DIRECTION ( 'NONE',  ( 0.000000000000000000, 0.000000000000000000, 1.000000000000000000 ) ) ;
#78 = DIRECTION ( 'NONE',  ( 0.000000000000000000, 0.000000000000000000, 1.000000000000000000 ) ) ;
#79 = EDGE_LOOP ( 'NONE', ( #256, #152 ) ) ;
#80 = DIRECTION ( 'NONE',  ( 1.000000000000000000, 0.000000000000000000, 0.000000000000000000 ) ) ;
#81 = CARTESIAN_POINT ( 'NONE',  ( 0.000000000000000000, 0.000000000000000000, 5.000000000000000000 ) ) ;
#82 = LINE ( 'NONE', #175, #258 ) ;
#83 = PERSON_AND_ORGANIZATION ( #277, #50 ) ;
#84 = EDGE_LOOP ( 'NONE', ( #61, #188, #205, #6 ) ) ;
#85 = CARTESIAN_POINT ( 'NONE',  ( 0.000000000000000000, 0.000000000000000000, 0.000000000000000000 ) ) ;
#86 = EDGE_LOOP ( 'NONE', ( #201, #145 ) ) ;
#87 = APPROVAL ( #224, 'NEURÈENÝ' ) ;
#88 = APPROVAL_ROLE ( '' ) ;
#89 = AXIS2_PLACEMENT_3D ( 'NONE', #283, #212, #165 ) ;
#90 = CALENDAR_DATE ( 2022, 7, 7 ) ;
#91 = ORIENTED_EDGE ( 'NONE', *, *, #125, .T. ) ;
#92 = ORIENTED_EDGE ( 'NONE', *, *, #173, .T. ) ;
#93 = EDGE_CURVE ( 'NONE', #29, #210, #231, .T. ) ;
#94 = ADVANCED_BREP_SHAPE_REPRESENTATION ( 'e5d8', ( #95, #233 ), #118 ) ;
#95 = MANIFOLD_SOLID_BREP ( 'Zaoblit1', #163 ) ;
#96 = CARTESIAN_POINT ( 'NONE',  ( 0.000000000000000000, 0.000000000000000000, 165.0000000000000000 ) ) ;
#97 = CARTESIAN_POINT ( 'NONE',  ( 0.000000000000000000, 0.000000000000000000, 5.000000000000000000 ) ) ;
#98 = APPROVAL ( #133, 'NEURÈENÝ' ) ;
#99 = AXIS2_PLACEMENT_3D ( 'NONE', #108, #131, #226 ) ;
#100 = PLANE ( 'NONE',  #282 ) ;
#101 = LINE ( 'NONE', #285, #20 ) ;
#102 = DIRECTION ( 'NONE',  ( 0.000000000000000000, 0.000000000000000000, 1.000000000000000000 ) ) ;
#103 = FACE_OUTER_BOUND ( 'NONE', #280, .T. ) ;
#104 = DIRECTION ( 'NONE',  ( 0.000000000000000000, 0.000000000000000000, -1.000000000000000000 ) ) ;
#105 = DIRECTION ( 'NONE',  ( 0.000000000000000000, 0.000000000000000000, 1.000000000000000000 ) ) ;
#106 = ORIENTED_EDGE ( 'NONE', *, *, #218, .T. ) ;
#107 = CC_DESIGN_PERSON_AND_ORGANIZATION_ASSIGNMENT ( #83, #251, ( #39 ) ) ;
#108 = CARTESIAN_POINT ( 'NONE',  ( 0.000000000000000000, 0.000000000000000000, 165.0000000000000000 ) ) ;
#109 = PERSON_AND_ORGANIZATION_ROLE ( 'design_owner' ) ;
#110 = EDGE_LOOP ( 'NONE', ( #69, #127, #177, #115 ) ) ;
#111 = CARTESIAN_POINT ( 'NONE',  ( 0.000000000000000000, 0.000000000000000000, 5.000000000000000000 ) ) ;
#112 = COORDINATED_UNIVERSAL_TIME_OFFSET ( 1, 0, .AHEAD. ) ;
#113 = COORDINATED_UNIVERSAL_TIME_OFFSET ( 1, 0, .AHEAD. ) ;
#114 = AXIS2_PLACEMENT_3D ( 'NONE', #196, #1, #49 ) ;
#115 = ORIENTED_EDGE ( 'NONE', *, *, #129, .T. ) ;
#116 = AXIS2_PLACEMENT_3D ( 'NONE', #242, #146, #2 ) ;
#117 = ORIENTED_EDGE ( 'NONE', *, *, #234, .F. ) ;
#118 =( GEOMETRIC_REPRESENTATION_CONTEXT ( 3 ) GLOBAL_UNCERTAINTY_ASSIGNED_CONTEXT ( ( #66 ) ) GLOBAL_UNIT_ASSIGNED_CONTEXT ( ( #170, #3, #176 ) ) REPRESENTATION_CONTEXT ( 'NONE', 'WORKASPACE' ) );
#119 = FACE_OUTER_BOUND ( 'NONE', #110, .T. ) ;
#120 = CYLINDRICAL_SURFACE ( 'NONE', #164, 5.100000000000001421 ) ;
#121 = DIRECTION ( 'NONE',  ( 1.000000000000000000, 0.000000000000000000, 0.000000000000000000 ) ) ;
#122 = DIRECTION ( 'NONE',  ( 1.000000000000000000, 0.000000000000000000, 0.000000000000000000 ) ) ;
#123 = AXIS2_PLACEMENT_3D ( 'NONE', #26, #124, #219 ) ;
#124 = DIRECTION ( 'NONE',  ( 0.000000000000000000, 0.000000000000000000, 1.000000000000000000 ) ) ;
#125 = EDGE_CURVE ( 'NONE', #302, #222, #295, .T. ) ;
#126 = PERSON_AND_ORGANIZATION ( #277, #50 ) ;
#127 = ORIENTED_EDGE ( 'NONE', *, *, #93, .F. ) ;
#128 = DIRECTION ( 'NONE',  ( 0.000000000000000000, 0.000000000000000000, 1.000000000000000000 ) ) ;
#129 = EDGE_CURVE ( 'NONE', #187, #17, #228, .T. ) ;
#130 = ORIENTED_EDGE ( 'NONE', *, *, #5, .F. ) ;
#131 = DIRECTION ( 'NONE',  ( 0.000000000000000000, 0.000000000000000000, 1.000000000000000000 ) ) ;
#132 = AXIS2_PLACEMENT_3D ( 'NONE', #306, #102, #121 ) ;
#133 = APPROVAL_STATUS ( 'not_yet_approved' ) ;
#134 = SECURITY_CLASSIFICATION_LEVEL ( 'unclassified' ) ;
#135 = EDGE_CURVE ( 'NONE', #17, #10, #252, .T. ) ;
#136 = AXIS2_PLACEMENT_3D ( 'NONE', #97, #44, #260 ) ;
#137 = VERTEX_POINT ( 'NONE', #155 ) ;
#138 = ORIENTED_EDGE ( 'NONE', *, *, #184, .F. ) ;
#139 = CC_DESIGN_PERSON_AND_ORGANIZATION_ASSIGNMENT ( #158, #179, ( #197 ) ) ;
#140 = CC_DESIGN_APPROVAL ( #98, ( #197 ) ) ;
#141 = PRODUCT ( 'e5d8', 'e5d8', '', ( #60 ) ) ;
#142 = DIRECTION ( 'NONE',  ( 0.000000000000000000, 0.000000000000000000, 1.000000000000000000 ) ) ;
#143 = DIRECTION ( 'NONE',  ( 1.000000000000000000, 0.000000000000000000, -0.000000000000000000 ) ) ;
#144 = DIRECTION ( 'NONE',  ( 1.000000000000000000, 0.000000000000000000, -0.000000000000000000 ) ) ;
#145 = ORIENTED_EDGE ( 'NONE', *, *, #234, .T. ) ;
#146 = DIRECTION ( 'NONE',  ( 0.000000000000000000, 0.000000000000000000, 1.000000000000000000 ) ) ;
#147 = CARTESIAN_POINT ( 'NONE',  ( 0.000000000000000000, 0.000000000000000000, 165.0000000000000000 ) ) ;
#148 = CARTESIAN_POINT ( 'NONE',  ( 0.000000000000000000, 0.000000000000000000, 0.000000000000000000 ) ) ;
#149 = TOROIDAL_SURFACE ( 'NONE', #13, 5.300000000000000711, 0.2000000000000000111 ) ;
#150 = ADVANCED_FACE ( 'NONE', ( #250 ), #33, .T. ) ;
#151 = LOCAL_TIME ( 11, 52, 55.00000000000000000, #9 ) ;
#152 = ORIENTED_EDGE ( 'NONE', *, *, #36, .F. ) ;
#153 = CYLINDRICAL_SURFACE ( 'NONE', #220, 8.000000000000000000 ) ;
#154 = ORIENTED_EDGE ( 'NONE', *, *, #15, .F. ) ;
#155 = CARTESIAN_POINT ( 'NONE',  ( -5.300000000000000711, 6.490628035480971924E-16, 5.000000000000005329 ) ) ;
#156 = CALENDAR_DATE ( 2022, 7, 7 ) ;
#157 = DESIGN_CONTEXT ( 'detailed design', #276, 'design' ) ;
#158 = PERSON_AND_ORGANIZATION ( #277, #50 ) ;
#159 = EDGE_CURVE ( 'NONE', #29, #187, #82, .T. ) ;
#160 = ADVANCED_FACE ( 'NONE', ( #54 ), #153, .T. ) ;
#161 = AXIS2_PLACEMENT_3D ( 'NONE', #81, #78, #172 ) ;
#162 = EDGE_LOOP ( 'NONE', ( #232, #209 ) ) ;
#163 = CLOSED_SHELL ( 'NONE', ( #37, #257, #150, #160, #288, #207, #227, #62, #73 ) ) ;
#164 = AXIS2_PLACEMENT_3D ( 'NONE', #96, #191, #213 ) ;
#165 = DIRECTION ( 'NONE',  ( -1.000000000000000000, 1.224646799147353454E-16, 0.000000000000000000 ) ) ;
#166 = PRODUCT_DEFINITION_SHAPE ( 'NONE', 'NONE',  #197 ) ;
#167 = PLANE ( 'NONE',  #240 ) ;
#168 = FACE_BOUND ( 'NONE', #245, .T. ) ;
#169 = CARTESIAN_POINT ( 'NONE',  ( 5.100000000000001421, 6.245698675651502811E-16, 5.200000000000009948 ) ) ;
#170 =( LENGTH_UNIT ( ) NAMED_UNIT ( * ) SI_UNIT ( .MILLI., .METRE. ) );
#171 = DIRECTION ( 'NONE',  ( -0.000000000000000000, -0.000000000000000000, -1.000000000000000000 ) ) ;
#172 = DIRECTION ( 'NONE',  ( 1.000000000000000000, 0.000000000000000000, 0.000000000000000000 ) ) ;
#173 = EDGE_CURVE ( 'NONE', #301, #302, #235, .T. ) ;
#174 = LOCAL_TIME ( 11, 52, 55.00000000000000000, #112 ) ;
#175 = CARTESIAN_POINT ( 'NONE',  ( -5.100000000000001421, 0.000000000000000000, 165.0000000000000000 ) ) ;
#176 =( NAMED_UNIT ( * ) SI_UNIT ( $, .STERADIAN. ) SOLID_ANGLE_UNIT ( ) );
#177 = ORIENTED_EDGE ( 'NONE', *, *, #159, .T. ) ;
#178 = DIRECTION ( 'NONE',  ( 1.000000000000000000, 0.000000000000000000, 0.000000000000000000 ) ) ;
#179 = PERSON_AND_ORGANIZATION_ROLE ( 'creator' ) ;
#180 = ORIENTED_EDGE ( 'NONE', *, *, #36, .T. ) ;
#181 = SHAPE_DEFINITION_REPRESENTATION ( #166, #94 ) ;
#182 = PERSON_AND_ORGANIZATION ( #277, #50 ) ;
#183 = LOCAL_TIME ( 11, 52, 55.00000000000000000, #273 ) ;
#184 = EDGE_CURVE ( 'NONE', #187, #137, #211, .T. ) ;
#185 = CC_DESIGN_DATE_AND_TIME_ASSIGNMENT ( #28, #34, ( #197 ) ) ;
#186 = APPROVAL_ROLE ( '' ) ;
#187 = VERTEX_POINT ( 'NONE', #259 ) ;
#188 = ORIENTED_EDGE ( 'NONE', *, *, #184, .T. ) ;
#189 = CIRCLE ( 'NONE', #132, 8.000000000000000000 ) ;
#190 = AXIS2_PLACEMENT_3D ( 'NONE', #85, #203, #11 ) ;
#191 = DIRECTION ( 'NONE',  ( -0.000000000000000000, -0.000000000000000000, -1.000000000000000000 ) ) ;
#192 = EDGE_CURVE ( 'NONE', #10, #137, #264, .T. ) ;
#193 = CARTESIAN_POINT ( 'NONE',  ( 5.100000000000001421, 6.245698675651502811E-16, 165.0000000000000000 ) ) ;
#194 = TOROIDAL_SURFACE ( 'NONE', #116, 5.300000000000000711, 0.2000000000000000111 ) ;
#195 = DIRECTION ( 'NONE',  ( 1.000000000000000000, 0.000000000000000000, 0.000000000000000000 ) ) ;
#196 = CARTESIAN_POINT ( 'NONE',  ( 0.000000000000000000, 0.000000000000000000, 165.0000000000000000 ) ) ;
#197 = PRODUCT_DEFINITION ( 'NEZNÁMÝ', '', #52, #157 ) ;
#198 = DIRECTION ( 'NONE',  ( -1.000000000000000000, 0.000000000000000000, 0.000000000000000000 ) ) ;
#199 = DIRECTION ( 'NONE',  ( 1.000000000000000000, 0.000000000000000000, 0.000000000000000000 ) ) ;
#200 = PERSON_AND_ORGANIZATION_ROLE ( 'design_supplier' ) ;
#201 = ORIENTED_EDGE ( 'NONE', *, *, #300, .T. ) ;
#202 = LOCAL_TIME ( 11, 52, 55.00000000000000000, #293 ) ;
#203 = DIRECTION ( 'NONE',  ( 0.000000000000000000, 0.000000000000000000, 1.000000000000000000 ) ) ;
#204 = DATE_AND_TIME ( #90, #174 ) ;
#205 = ORIENTED_EDGE ( 'NONE', *, *, #192, .F. ) ;
#206 = APPROVAL_DATE_TIME ( #204, #98 ) ;
#207 = ADVANCED_FACE ( 'NONE', ( #45 ), #167, .F. ) ;
#208 = CIRCLE ( 'NONE', #161, 8.000000000000000000 ) ;
#209 = ORIENTED_EDGE ( 'NONE', *, *, #266, .T. ) ;
#210 = VERTEX_POINT ( 'NONE', #19 ) ;
#211 = CIRCLE ( 'NONE', #89, 0.1999999999999996503 ) ;
#212 = DIRECTION ( 'NONE',  ( 1.224646799147353207E-16, 1.000000000000000000, -0.000000000000000000 ) ) ;
#213 = DIRECTION ( 'NONE',  ( -1.000000000000000000, 0.000000000000000000, 0.000000000000000000 ) ) ;
#214 = ORIENTED_EDGE ( 'NONE', *, *, #159, .F. ) ;
#215 = LOCAL_TIME ( 11, 52, 55.00000000000000000, #113 ) ;
#216 = DIRECTION ( 'NONE',  ( 0.000000000000000000, 0.000000000000000000, 1.000000000000000000 ) ) ;
#217 = CARTESIAN_POINT ( 'NONE',  ( 5.300000000000000711, 0.000000000000000000, 5.000000000000005329 ) ) ;
#218 = EDGE_CURVE ( 'NONE', #210, #17, #236, .T. ) ;
#219 = DIRECTION ( 'NONE',  ( 1.000000000000000000, 0.000000000000000000, -0.000000000000000000 ) ) ;
#220 = AXIS2_PLACEMENT_3D ( 'NONE', #246, #30, #198 ) ;
#221 = DATE_AND_TIME ( #14, #151 ) ;
#222 = VERTEX_POINT ( 'NONE', #21 ) ;
#223 = DIRECTION ( 'NONE',  ( 0.000000000000000000, 0.000000000000000000, 1.000000000000000000 ) ) ;
#224 = APPROVAL_STATUS ( 'not_yet_approved' ) ;
#225 = EDGE_LOOP ( 'NONE', ( #154, #249, #92, #91 ) ) ;
#226 = DIRECTION ( 'NONE',  ( 1.000000000000000000, 0.000000000000000000, 0.000000000000000000 ) ) ;
#227 = ADVANCED_FACE ( 'NONE', ( #119 ), #120, .T. ) ;
#228 = CIRCLE ( 'NONE', #265, 5.100000000000001421 ) ;
#229 = PERSON_AND_ORGANIZATION ( #277, #50 ) ;
#230 = VERTEX_POINT ( 'NONE', #74 ) ;
#231 = CIRCLE ( 'NONE', #99, 5.100000000000001421 ) ;
#232 = ORIENTED_EDGE ( 'NONE', *, *, #93, .T. ) ;
#233 = AXIS2_PLACEMENT_3D ( 'NONE', #244, #105, #12 ) ;
#234 = EDGE_CURVE ( 'NONE', #230, #301, #189, .T. ) ;
#235 = LINE ( 'NONE', #281, #299 ) ;
#236 = LINE ( 'NONE', #193, #64 ) ;
#237 = DIRECTION ( 'NONE',  ( -0.000000000000000000, -0.000000000000000000, -1.000000000000000000 ) ) ;
#238 = CARTESIAN_POINT ( 'NONE',  ( -8.000000000000000000, 0.000000000000000000, 0.000000000000000000 ) ) ;
#239 = FACE_OUTER_BOUND ( 'NONE', #84, .T. ) ;
#240 = AXIS2_PLACEMENT_3D ( 'NONE', #305, #142, #143 ) ;
#241 = CARTESIAN_POINT ( 'NONE',  ( -8.000000000000000000, 0.000000000000000000, 5.000000000000000000 ) ) ;
#242 = CARTESIAN_POINT ( 'NONE',  ( 0.000000000000000000, 0.000000000000000000, 5.200000000000009948 ) ) ;
#243 = APPLICATION_CONTEXT ( 'configuration controlled 3d designs of mechanical parts and assemblies' ) ;
#244 = CARTESIAN_POINT ( 'NONE',  ( 0.000000000000000000, 0.000000000000000000, 0.000000000000000000 ) ) ;
#245 = EDGE_LOOP ( 'NONE', ( #291, #270 ) ) ;
#246 = CARTESIAN_POINT ( 'NONE',  ( 0.000000000000000000, 0.000000000000000000, 5.000000000000000000 ) ) ;
#247 = PRODUCT_RELATED_PRODUCT_CATEGORY ( 'detail', '', ( #141 ) ) ;
#248 = APPROVAL_ROLE ( '' ) ;
#249 = ORIENTED_EDGE ( 'NONE', *, *, #300, .F. ) ;
#250 = FACE_OUTER_BOUND ( 'NONE', #18, .T. ) ;
#251 = PERSON_AND_ORGANIZATION_ROLE ( 'classification_officer' ) ;
#252 = CIRCLE ( 'NONE', #287, 0.1999999999999996503 ) ;
#253 = CC_DESIGN_PERSON_AND_ORGANIZATION_ASSIGNMENT ( #126, #200, ( #52 ) ) ;
#254 = APPROVAL_PERSON_ORGANIZATION ( #65, #59, #248 ) ;
#255 = CC_DESIGN_PERSON_AND_ORGANIZATION_ASSIGNMENT ( #67, #109, ( #141 ) ) ;
#256 = ORIENTED_EDGE ( 'NONE', *, *, #125, .F. ) ;
#257 = ADVANCED_FACE ( 'NONE', ( #22 ), #262, .T. ) ;
#258 = VECTOR ( 'NONE', #268, 1000.000000000000000 ) ;
#259 = CARTESIAN_POINT ( 'NONE',  ( -5.100000000000001421, 0.000000000000000000, 5.200000000000009948 ) ) ;
#260 = DIRECTION ( 'NONE',  ( 1.000000000000000000, 0.000000000000000000, 0.000000000000000000 ) ) ;
#261 = DIRECTION ( 'NONE',  ( 0.000000000000000000, 0.000000000000000000, 1.000000000000000000 ) ) ;
#262 = CYLINDRICAL_SURFACE ( 'NONE', #114, 5.100000000000001421 ) ;
#263 = CARTESIAN_POINT ( 'NONE',  ( 0.000000000000000000, 0.000000000000000000, 5.200000000000009948 ) ) ;
#264 = CIRCLE ( 'NONE', #136, 5.300000000000000711 ) ;
#265 = AXIS2_PLACEMENT_3D ( 'NONE', #292, #223, #178 ) ;
#266 = EDGE_CURVE ( 'NONE', #210, #29, #8, .T. ) ;
#267 = AXIS2_PLACEMENT_3D ( 'NONE', #147, #216, #46 ) ;
#268 = DIRECTION ( 'NONE',  ( -0.000000000000000000, -0.000000000000000000, -1.000000000000000000 ) ) ;
#269 = DATE_TIME_ROLE ( 'classification_date' ) ;
#270 = ORIENTED_EDGE ( 'NONE', *, *, #5, .T. ) ;
#271 = AXIS2_PLACEMENT_3D ( 'NONE', #148, #77, #195 ) ;
#272 = CARTESIAN_POINT ( 'NONE',  ( 5.300000000000000711, 0.000000000000000000, 5.200000000000009948 ) ) ;
#273 = COORDINATED_UNIVERSAL_TIME_OFFSET ( 1, 0, .AHEAD. ) ;
#274 = EDGE_LOOP ( 'NONE', ( #41, #106, #57, #214 ) ) ;
#275 = PERSON_AND_ORGANIZATION_ROLE ( 'creator' ) ;
#276 = APPLICATION_CONTEXT ( 'configuration controlled 3d designs of mechanical parts and assemblies' ) ;
#277 = PERSON ( 'NEURÈENÝ', 'NEURÈENÝ', 'NEURÈENÝ', ('NEURÈENÝ'), ('NEURÈENÝ'), ('NEURÈENÝ') ) ;
#278 = CALENDAR_DATE ( 2022, 7, 7 ) ;
#279 = ORIENTED_EDGE ( 'NONE', *, *, #173, .F. ) ;
#280 = EDGE_LOOP ( 'NONE', ( #138, #25, #32, #130 ) ) ;
#281 = CARTESIAN_POINT ( 'NONE',  ( -8.000000000000000000, 0.000000000000000000, 5.000000000000000000 ) ) ;
#282 = AXIS2_PLACEMENT_3D ( 'NONE', #286, #261, #144 ) ;
#283 = CARTESIAN_POINT ( 'NONE',  ( -5.300000000000000711, 6.490628035480972910E-16, 5.200000000000009948 ) ) ;
#284 = CARTESIAN_POINT ( 'NONE',  ( 0.000000000000000000, 0.000000000000000000, 5.200000000000009948 ) ) ;
#285 = CARTESIAN_POINT ( 'NONE',  ( 8.000000000000000000, 9.797174393178825657E-16, 5.000000000000000000 ) ) ;
#286 = CARTESIAN_POINT ( 'NONE',  ( 0.000000000000000000, 0.000000000000000000, 5.000000000000000000 ) ) ;
#287 = AXIS2_PLACEMENT_3D ( 'NONE', #272, #58, #104 ) ;
#288 = ADVANCED_FACE ( 'NONE', ( #168, #24 ), #100, .T. ) ;
#289 = DIRECTION ( 'NONE',  ( -1.000000000000000000, 0.000000000000000000, 0.000000000000000000 ) ) ;
#290 = CC_DESIGN_SECURITY_CLASSIFICATION ( #39, ( #52 ) ) ;
#291 = ORIENTED_EDGE ( 'NONE', *, *, #192, .T. ) ;
#292 = CARTESIAN_POINT ( 'NONE',  ( 0.000000000000000000, 0.000000000000000000, 5.200000000000009948 ) ) ;
#293 = COORDINATED_UNIVERSAL_TIME_OFFSET ( 1, 0, .AHEAD. ) ;
#294 = CARTESIAN_POINT ( 'NONE',  ( 0.000000000000000000, 0.000000000000000000, 5.000000000000000000 ) ) ;
#295 = CIRCLE ( 'NONE', #190, 8.000000000000000000 ) ;
#296 = PERSON_AND_ORGANIZATION ( #277, #50 ) ;
#297 = CALENDAR_DATE ( 2022, 7, 7 ) ;
#298 = APPLICATION_PROTOCOL_DEFINITION ( 'international standard', 'config_control_design', 1994, #243 ) ;
#299 = VECTOR ( 'NONE', #75, 1000.000000000000000 ) ;
#300 = EDGE_CURVE ( 'NONE', #301, #230, #208, .T. ) ;
#301 = VERTEX_POINT ( 'NONE', #241 ) ;
#302 = VERTEX_POINT ( 'NONE', #238 ) ;
#303 = CIRCLE ( 'NONE', #271, 8.000000000000000000 ) ;
#304 = CC_DESIGN_PERSON_AND_ORGANIZATION_ASSIGNMENT ( #182, #275, ( #52 ) ) ;
#305 = CARTESIAN_POINT ( 'NONE',  ( 0.000000000000000000, 0.000000000000000000, 0.000000000000000000 ) ) ;
#306 = CARTESIAN_POINT ( 'NONE',  ( 0.000000000000000000, 0.000000000000000000, 5.000000000000000000 ) ) ;
#307 = APPROVAL_PERSON_ORGANIZATION ( #296, #98, #186 ) ;
ENDSEC;
END-ISO-10303-21;
