ISO-10303-21;
HEADER;
FILE_DESCRIPTION (( 'STEP AP203' ),
    '1' );
FILE_NAME ('d1a3.STEP',
    '2022-07-07T09:46:16',
    ( '' ),
    ( '' ),
    'SwSTEP 2.0',
    'SolidWorks 2019',
    '' );
FILE_SCHEMA (( 'CONFIG_CONTROL_DESIGN' ));
ENDSEC;

DATA;
#1 = DIRECTION ( 'NONE',  ( 1.000000000000000000, 0.000000000000000000, 0.000000000000000000 ) ) ;
#2 = CARTESIAN_POINT ( 'NONE',  ( 0.000000000000000000, 0.000000000000000000, 507.0000000000000000 ) ) ;
#3 = DIRECTION ( 'NONE',  ( -0.000000000000000000, -0.000000000000000000, -1.000000000000000000 ) ) ;
#4 = CIRCLE ( 'NONE', #180, 6.000000000000000888 ) ;
#5 = CARTESIAN_POINT ( 'NONE',  ( 0.000000000000000000, 0.000000000000000000, 7.199999999999984190 ) ) ;
#6 = DIRECTION ( 'NONE',  ( 1.000000000000000000, 0.000000000000000000, 0.000000000000000000 ) ) ;
#7 = APPROVAL_ROLE ( '' ) ;
#8 = ORIENTED_EDGE ( 'NONE', *, *, #289, .T. ) ;
#9 = APPROVAL_STATUS ( 'not_yet_approved' ) ;
#10 = CC_DESIGN_PERSON_AND_ORGANIZATION_ASSIGNMENT ( #78, #277, ( #301 ) ) ;
#11 = ORIENTED_EDGE ( 'NONE', *, *, #101, .T. ) ;
#12 = PERSON_AND_ORGANIZATION ( #177, #80 ) ;
#13 = ADVANCED_FACE ( 'NONE', ( #96 ), #190, .T. ) ;
#14 = DESIGN_CONTEXT ( 'detailed design', #27, 'design' ) ;
#15 = APPLICATION_PROTOCOL_DEFINITION ( 'international standard', 'config_control_design', 1994, #27 ) ;
#16 = EDGE_LOOP ( 'NONE', ( #207, #136, #109, #165 ) ) ;
#17 = DIRECTION ( 'NONE',  ( 0.000000000000000000, 0.000000000000000000, 1.000000000000000000 ) ) ;
#18 = ADVANCED_FACE ( 'NONE', ( #261 ), #191, .F. ) ;
#19 = FACE_OUTER_BOUND ( 'NONE', #60, .T. ) ;
#20 = TOROIDAL_SURFACE ( 'NONE', #222, 6.200000000000001066, 0.2000000000000000111 ) ;
#21 = ORIENTED_EDGE ( 'NONE', *, *, #149, .T. ) ;
#22 = CARTESIAN_POINT ( 'NONE',  ( -9.000000000000000000, 0.000000000000000000, 7.000000000000000000 ) ) ;
#23 = CARTESIAN_POINT ( 'NONE',  ( -6.000000000000000888, 0.000000000000000000, 507.0000000000000000 ) ) ;
#24 = AXIS2_PLACEMENT_3D ( 'NONE', #99, #93, #288 ) ;
#25 = FACE_OUTER_BOUND ( 'NONE', #231, .T. ) ;
#26 = CARTESIAN_POINT ( 'NONE',  ( 0.000000000000000000, 0.000000000000000000, 0.000000000000000000 ) ) ;
#27 = APPLICATION_CONTEXT ( 'configuration controlled 3d designs of mechanical parts and assemblies' ) ;
#28 = CC_DESIGN_SECURITY_CLASSIFICATION ( #301, ( #291 ) ) ;
#29 = CARTESIAN_POINT ( 'NONE',  ( 0.000000000000000000, 0.000000000000000000, 507.0000000000000000 ) ) ;
#30 = ADVANCED_FACE ( 'NONE', ( #284 ), #45, .F. ) ;
#31 = APPROVAL_STATUS ( 'not_yet_approved' ) ;
#32 = ORIENTED_EDGE ( 'NONE', *, *, #152, .F. ) ;
#33 = CC_DESIGN_PERSON_AND_ORGANIZATION_ASSIGNMENT ( #88, #81, ( #201 ) ) ;
#34 = ORIENTED_EDGE ( 'NONE', *, *, #252, .F. ) ;
#35 = CIRCLE ( 'NONE', #283, 6.000000000000000888 ) ;
#36 = PERSON_AND_ORGANIZATION_ROLE ( 'design_owner' ) ;
#37 = VERTEX_POINT ( 'NONE', #66 ) ;
#38 = AXIS2_PLACEMENT_3D ( 'NONE', #265, #17, #307 ) ;
#39 = DIRECTION ( 'NONE',  ( -0.000000000000000000, -0.000000000000000000, -1.000000000000000000 ) ) ;
#40 = CARTESIAN_POINT ( 'NONE',  ( 0.000000000000000000, 0.000000000000000000, 7.199999999999984190 ) ) ;
#41 = CARTESIAN_POINT ( 'NONE',  ( 0.000000000000000000, 0.000000000000000000, 507.0000000000000000 ) ) ;
#42 = AXIS2_PLACEMENT_3D ( 'NONE', #70, #260, #138 ) ;
#43 = CC_DESIGN_APPROVAL ( #95, ( #201 ) ) ;
#44 = LINE ( 'NONE', #23, #137 ) ;
#45 = PLANE ( 'NONE',  #235 ) ;
#46 = CC_DESIGN_PERSON_AND_ORGANIZATION_ASSIGNMENT ( #59, #258, ( #291 ) ) ;
#47 = FACE_BOUND ( 'NONE', #296, .T. ) ;
#48 = AXIS2_PLACEMENT_3D ( 'NONE', #51, #100, #253 ) ;
#49 = CARTESIAN_POINT ( 'NONE',  ( 0.000000000000000000, 0.000000000000000000, 7.000000000000000000 ) ) ;
#50 = CARTESIAN_POINT ( 'NONE',  ( 0.000000000000000000, 0.000000000000000000, 7.000000000000000000 ) ) ;
#51 = CARTESIAN_POINT ( 'NONE',  ( 0.000000000000000000, 0.000000000000000000, 7.000000000000000000 ) ) ;
#52 = CIRCLE ( 'NONE', #163, 6.000000000000000888 ) ;
#53 = DATE_TIME_ROLE ( 'creation_date' ) ;
#54 = SHAPE_DEFINITION_REPRESENTATION ( #245, #143 ) ;
#55 = ORIENTED_EDGE ( 'NONE', *, *, #56, .F. ) ;
#56 = EDGE_CURVE ( 'NONE', #37, #238, #97, .T. ) ;
#57 = CALENDAR_DATE ( 2022, 7, 7 ) ;
#58 = ORIENTED_EDGE ( 'NONE', *, *, #101, .F. ) ;
#59 = PERSON_AND_ORGANIZATION ( #177, #80 ) ;
#60 = EDGE_LOOP ( 'NONE', ( #55, #275, #282, #262 ) ) ;
#61 = PERSON_AND_ORGANIZATION ( #177, #80 ) ;
#62 = EDGE_LOOP ( 'NONE', ( #213, #263 ) ) ;
#63 = ORIENTED_EDGE ( 'NONE', *, *, #252, .T. ) ;
#64 = EDGE_CURVE ( 'NONE', #202, #84, #300, .T. ) ;
#65 = LOCAL_TIME ( 11, 46, 16.00000000000000000, #135 ) ;
#66 = CARTESIAN_POINT ( 'NONE',  ( 6.000000000000000888, 7.347880794884120722E-16, 507.0000000000000000 ) ) ;
#67 = DIRECTION ( 'NONE',  ( 1.000000000000000000, 0.000000000000000000, 0.000000000000000000 ) ) ;
#68 = DIRECTION ( 'NONE',  ( 0.000000000000000000, 0.000000000000000000, 1.000000000000000000 ) ) ;
#69 = DIRECTION ( 'NONE',  ( 0.000000000000000000, 0.000000000000000000, 1.000000000000000000 ) ) ;
#70 = CARTESIAN_POINT ( 'NONE',  ( -6.200000000000001066, 7.592810154713590821E-16, 7.199999999999984190 ) ) ;
#71 =( NAMED_UNIT ( * ) PLANE_ANGLE_UNIT ( ) SI_UNIT ( $, .RADIAN. ) );
#72 = CARTESIAN_POINT ( 'NONE',  ( 6.000000000000000888, 7.347880794884120722E-16, 507.0000000000000000 ) ) ;
#73 = LOCAL_TIME ( 11, 46, 16.00000000000000000, #110 ) ;
#74 = PRODUCT_RELATED_PRODUCT_CATEGORY ( 'detail', '', ( #305 ) ) ;
#75 = FACE_OUTER_BOUND ( 'NONE', #154, .T. ) ;
#76 = ADVANCED_FACE ( 'NONE', ( #94 ), #164, .T. ) ;
#77 = CARTESIAN_POINT ( 'NONE',  ( 9.000000000000000000, 1.102182119232617714E-15, 7.000000000000000000 ) ) ;
#78 = PERSON_AND_ORGANIZATION ( #177, #80 ) ;
#79 = AXIS2_PLACEMENT_3D ( 'NONE', #119, #39, #120 ) ;
#80 = ORGANIZATION ( 'NEURÈENÝ', 'NEURÈENÝ', '' ) ;
#81 = PERSON_AND_ORGANIZATION_ROLE ( 'creator' ) ;
#82 = ORIENTED_EDGE ( 'NONE', *, *, #206, .F. ) ;
#83 = PERSON_AND_ORGANIZATION ( #177, #80 ) ;
#84 = VERTEX_POINT ( 'NONE', #166 ) ;
#85 = CC_DESIGN_PERSON_AND_ORGANIZATION_ASSIGNMENT ( #83, #36, ( #305 ) ) ;
#86 = CIRCLE ( 'NONE', #167, 9.000000000000000000 ) ;
#87 = CC_DESIGN_APPROVAL ( #124, ( #291 ) ) ;
#88 = PERSON_AND_ORGANIZATION ( #177, #80 ) ;
#89 = EDGE_CURVE ( 'NONE', #238, #278, #44, .T. ) ;
#90 = VERTEX_POINT ( 'NONE', #22 ) ;
#91 = DIRECTION ( 'NONE',  ( 1.000000000000000000, 0.000000000000000000, 0.000000000000000000 ) ) ;
#92 = LOCAL_TIME ( 11, 46, 16.00000000000000000, #200 ) ;
#93 = DIRECTION ( 'NONE',  ( 0.000000000000000000, 0.000000000000000000, 1.000000000000000000 ) ) ;
#94 = FACE_OUTER_BOUND ( 'NONE', #16, .T. ) ;
#95 = APPROVAL ( #208, 'NEURÈENÝ' ) ;
#96 = FACE_OUTER_BOUND ( 'NONE', #186, .T. ) ;
#97 = CIRCLE ( 'NONE', #141, 6.000000000000000888 ) ;
#98 = APPROVAL_PERSON_ORGANIZATION ( #61, #124, #7 ) ;
#99 = CARTESIAN_POINT ( 'NONE',  ( 0.000000000000000000, 0.000000000000000000, 0.000000000000000000 ) ) ;
#100 = DIRECTION ( 'NONE',  ( 0.000000000000000000, 0.000000000000000000, 1.000000000000000000 ) ) ;
#101 = EDGE_CURVE ( 'NONE', #84, #246, #216, .T. ) ;
#102 = DIRECTION ( 'NONE',  ( 0.000000000000000000, 0.000000000000000000, 1.000000000000000000 ) ) ;
#103 = DIRECTION ( 'NONE',  ( 0.000000000000000000, 0.000000000000000000, 1.000000000000000000 ) ) ;
#104 = EDGE_CURVE ( 'NONE', #162, #182, #279, .T. ) ;
#105 = CARTESIAN_POINT ( 'NONE',  ( -9.000000000000000000, 0.000000000000000000, 0.000000000000000000 ) ) ;
#106 = CYLINDRICAL_SURFACE ( 'NONE', #228, 6.000000000000000888 ) ;
#107 = PERSON_AND_ORGANIZATION ( #177, #80 ) ;
#108 = CIRCLE ( 'NONE', #185, 6.200000000000001066 ) ;
#109 = ORIENTED_EDGE ( 'NONE', *, *, #206, .T. ) ;
#110 = COORDINATED_UNIVERSAL_TIME_OFFSET ( 1, 0, .AHEAD. ) ;
#111 = ORIENTED_EDGE ( 'NONE', *, *, #56, .T. ) ;
#112 = APPROVAL_ROLE ( '' ) ;
#113 = CIRCLE ( 'NONE', #42, 0.1999999999999996503 ) ;
#114 = DATE_AND_TIME ( #57, #65 ) ;
#115 = DIRECTION ( 'NONE',  ( -1.000000000000000000, 0.000000000000000000, 0.000000000000000000 ) ) ;
#116 = CYLINDRICAL_SURFACE ( 'NONE', #223, 6.000000000000000888 ) ;
#117 =( GEOMETRIC_REPRESENTATION_CONTEXT ( 3 ) GLOBAL_UNCERTAINTY_ASSIGNED_CONTEXT ( ( #160 ) ) GLOBAL_UNIT_ASSIGNED_CONTEXT ( ( #218, #71, #249 ) ) REPRESENTATION_CONTEXT ( 'NONE', 'WORKASPACE' ) );
#118 = CARTESIAN_POINT ( 'NONE',  ( 0.000000000000000000, 0.000000000000000000, 507.0000000000000000 ) ) ;
#119 = CARTESIAN_POINT ( 'NONE',  ( 0.000000000000000000, 0.000000000000000000, 7.000000000000000000 ) ) ;
#120 = DIRECTION ( 'NONE',  ( 1.000000000000000000, 0.000000000000000000, 0.000000000000000000 ) ) ;
#121 = EDGE_CURVE ( 'NONE', #278, #246, #113, .T. ) ;
#122 = APPROVAL_PERSON_ORGANIZATION ( #229, #95, #112 ) ;
#123 = LINE ( 'NONE', #72, #264 ) ;
#124 = APPROVAL ( #9, 'NEURÈENÝ' ) ;
#125 = DIRECTION ( 'NONE',  ( 1.000000000000000000, 0.000000000000000000, 0.000000000000000000 ) ) ;
#126 = AXIS2_PLACEMENT_3D ( 'NONE', #286, #242, #115 ) ;
#127 = LOCAL_TIME ( 11, 46, 16.00000000000000000, #273 ) ;
#128 = CARTESIAN_POINT ( 'NONE',  ( -9.000000000000000000, 0.000000000000000000, 7.000000000000000000 ) ) ;
#129 = PLANE ( 'NONE',  #224 ) ;
#130 = COORDINATED_UNIVERSAL_TIME_OFFSET ( 1, 0, .AHEAD. ) ;
#131 = ORIENTED_EDGE ( 'NONE', *, *, #121, .F. ) ;
#132 = APPROVAL ( #31, 'NEURÈENÝ' ) ;
#133 = ORIENTED_EDGE ( 'NONE', *, *, #220, .T. ) ;
#134 = DIRECTION ( 'NONE',  ( 0.000000000000000000, 0.000000000000000000, 1.000000000000000000 ) ) ;
#135 = COORDINATED_UNIVERSAL_TIME_OFFSET ( 1, 0, .AHEAD. ) ;
#136 = ORIENTED_EDGE ( 'NONE', *, *, #267, .F. ) ;
#137 = VECTOR ( 'NONE', #299, 1000.000000000000000 ) ;
#138 = DIRECTION ( 'NONE',  ( -1.000000000000000000, 1.224646799147353454E-16, 0.000000000000000000 ) ) ;
#139 = DIRECTION ( 'NONE',  ( 0.000000000000000000, 0.000000000000000000, 1.000000000000000000 ) ) ;
#140 = DIRECTION ( 'NONE',  ( 0.000000000000000000, 0.000000000000000000, -1.000000000000000000 ) ) ;
#141 = AXIS2_PLACEMENT_3D ( 'NONE', #41, #285, #67 ) ;
#142 = CIRCLE ( 'NONE', #192, 9.000000000000000000 ) ;
#143 = ADVANCED_BREP_SHAPE_REPRESENTATION ( 'd1a3', ( #183, #237 ), #117 ) ;
#144 = ORIENTED_EDGE ( 'NONE', *, *, #289, .F. ) ;
#145 = DIRECTION ( 'NONE',  ( 0.000000000000000000, -1.000000000000000000, 0.000000000000000000 ) ) ;
#146 = DIRECTION ( 'NONE',  ( 0.000000000000000000, 0.000000000000000000, 1.000000000000000000 ) ) ;
#147 = CARTESIAN_POINT ( 'NONE',  ( 6.000000000000000888, 7.347880794884120722E-16, 7.199999999999984190 ) ) ;
#148 = CARTESIAN_POINT ( 'NONE',  ( 9.000000000000000000, 1.102182119232617714E-15, 7.000000000000000000 ) ) ;
#149 = EDGE_CURVE ( 'NONE', #246, #84, #108, .T. ) ;
#150 = CARTESIAN_POINT ( 'NONE',  ( -6.000000000000000888, 0.000000000000000000, 7.199999999999984190 ) ) ;
#151 = DATE_AND_TIME ( #161, #73 ) ;
#152 = EDGE_CURVE ( 'NONE', #202, #278, #35, .T. ) ;
#153 = APPROVAL_ROLE ( '' ) ;
#154 = EDGE_LOOP ( 'NONE', ( #257, #304 ) ) ;
#155 = ORIENTED_EDGE ( 'NONE', *, *, #64, .F. ) ;
#156 = AXIS2_PLACEMENT_3D ( 'NONE', #169, #3, #195 ) ;
#157 = APPROVAL_DATE_TIME ( #151, #124 ) ;
#158 = ADVANCED_FACE ( 'NONE', ( #19 ), #116, .T. ) ;
#159 = VERTEX_POINT ( 'NONE', #77 ) ;
#160 = UNCERTAINTY_MEASURE_WITH_UNIT (LENGTH_MEASURE( 1.000000000000000082E-05 ), #218, 'distance_accuracy_value', 'NONE');
#161 = CALENDAR_DATE ( 2022, 7, 7 ) ;
#162 = VERTEX_POINT ( 'NONE', #105 ) ;
#163 = AXIS2_PLACEMENT_3D ( 'NONE', #29, #292, #1 ) ;
#164 = CYLINDRICAL_SURFACE ( 'NONE', #126, 9.000000000000000000 ) ;
#165 = ORIENTED_EDGE ( 'NONE', *, *, #104, .T. ) ;
#166 = CARTESIAN_POINT ( 'NONE',  ( 6.200000000000001066, 0.000000000000000000, 6.999999999999992006 ) ) ;
#167 = AXIS2_PLACEMENT_3D ( 'NONE', #26, #196, #225 ) ;
#168 = CC_DESIGN_APPROVAL ( #132, ( #301 ) ) ;
#169 = CARTESIAN_POINT ( 'NONE',  ( 0.000000000000000000, 0.000000000000000000, 7.000000000000000000 ) ) ;
#170 = CARTESIAN_POINT ( 'NONE',  ( 0.000000000000000000, 0.000000000000000000, 7.199999999999984190 ) ) ;
#171 = LINE ( 'NONE', #128, #297 ) ;
#172 = DIRECTION ( 'NONE',  ( 0.000000000000000000, 0.000000000000000000, 1.000000000000000000 ) ) ;
#173 = APPROVAL_DATE_TIME ( #114, #95 ) ;
#174 = ADVANCED_FACE ( 'NONE', ( #268 ), #106, .T. ) ;
#175 = DATE_AND_TIME ( #295, #92 ) ;
#176 = EDGE_LOOP ( 'NONE', ( #34, #210, #58, #155 ) ) ;
#177 = PERSON ( 'NEURÈENÝ', 'NEURÈENÝ', 'NEURÈENÝ', ('NEURÈENÝ'), ('NEURÈENÝ'), ('NEURÈENÝ') ) ;
#178 = ORIENTED_EDGE ( 'NONE', *, *, #89, .T. ) ;
#179 = DIRECTION ( 'NONE',  ( 1.000000000000000000, 0.000000000000000000, 0.000000000000000000 ) ) ;
#180 = AXIS2_PLACEMENT_3D ( 'NONE', #5, #103, #6 ) ;
#181 = CALENDAR_DATE ( 2022, 7, 7 ) ;
#182 = VERTEX_POINT ( 'NONE', #198 ) ;
#183 = MANIFOLD_SOLID_BREP ( 'Zaoblit1', #248 ) ;
#184 = ORIENTED_EDGE ( 'NONE', *, *, #197, .T. ) ;
#185 = AXIS2_PLACEMENT_3D ( 'NONE', #239, #211, #91 ) ;
#186 = EDGE_LOOP ( 'NONE', ( #8, #111 ) ) ;
#187 = CC_DESIGN_DATE_AND_TIME_ASSIGNMENT ( #254, #204, ( #301 ) ) ;
#188 = EDGE_LOOP ( 'NONE', ( #205, #144, #178, #63 ) ) ;
#189 = ADVANCED_FACE ( 'NONE', ( #221 ), #20, .F. ) ;
#190 = PLANE ( 'NONE',  #243 ) ;
#191 = TOROIDAL_SURFACE ( 'NONE', #38, 6.200000000000001066, 0.2000000000000000111 ) ;
#192 = AXIS2_PLACEMENT_3D ( 'NONE', #49, #172, #125 ) ;
#193 = DIRECTION ( 'NONE',  ( 1.000000000000000000, 0.000000000000000000, -0.000000000000000000 ) ) ;
#194 = CARTESIAN_POINT ( 'NONE',  ( -6.000000000000000888, 0.000000000000000000, 507.0000000000000000 ) ) ;
#195 = DIRECTION ( 'NONE',  ( -1.000000000000000000, 0.000000000000000000, 0.000000000000000000 ) ) ;
#196 = DIRECTION ( 'NONE',  ( 0.000000000000000000, 0.000000000000000000, 1.000000000000000000 ) ) ;
#197 = EDGE_CURVE ( 'NONE', #182, #162, #86, .T. ) ;
#198 = CARTESIAN_POINT ( 'NONE',  ( 9.000000000000000000, 1.102182119232617714E-15, 0.000000000000000000 ) ) ;
#199 = LOCAL_TIME ( 11, 46, 16.00000000000000000, #130 ) ;
#200 = COORDINATED_UNIVERSAL_TIME_OFFSET ( 1, 0, .AHEAD. ) ;
#201 = PRODUCT_DEFINITION ( 'NEZNÁMÝ', '', #291, #14 ) ;
#202 = VERTEX_POINT ( 'NONE', #147 ) ;
#203 = APPLICATION_CONTEXT ( 'configuration controlled 3d designs of mechanical parts and assemblies' ) ;
#204 = DATE_TIME_ROLE ( 'classification_date' ) ;
#205 = ORIENTED_EDGE ( 'NONE', *, *, #276, .F. ) ;
#206 = EDGE_CURVE ( 'NONE', #90, #162, #171, .T. ) ;
#207 = ORIENTED_EDGE ( 'NONE', *, *, #220, .F. ) ;
#208 = APPROVAL_STATUS ( 'not_yet_approved' ) ;
#209 = PERSON_AND_ORGANIZATION_ROLE ( 'design_supplier' ) ;
#210 = ORIENTED_EDGE ( 'NONE', *, *, #121, .T. ) ;
#211 = DIRECTION ( 'NONE',  ( -0.000000000000000000, -0.000000000000000000, -1.000000000000000000 ) ) ;
#212 = CARTESIAN_POINT ( 'NONE',  ( 0.000000000000000000, 0.000000000000000000, 507.0000000000000000 ) ) ;
#213 = ORIENTED_EDGE ( 'NONE', *, *, #104, .F. ) ;
#214 = ORIENTED_EDGE ( 'NONE', *, *, #64, .T. ) ;
#215 = CARTESIAN_POINT ( 'NONE',  ( 0.000000000000000000, 0.000000000000000000, 0.000000000000000000 ) ) ;
#216 = CIRCLE ( 'NONE', #79, 6.200000000000001066 ) ;
#217 = CIRCLE ( 'NONE', #48, 9.000000000000000000 ) ;
#218 =( LENGTH_UNIT ( ) NAMED_UNIT ( * ) SI_UNIT ( .MILLI., .METRE. ) );
#219 = LINE ( 'NONE', #148, #255 ) ;
#220 = EDGE_CURVE ( 'NONE', #159, #182, #219, .T. ) ;
#221 = FACE_OUTER_BOUND ( 'NONE', #176, .T. ) ;
#222 = AXIS2_PLACEMENT_3D ( 'NONE', #170, #102, #247 ) ;
#223 = AXIS2_PLACEMENT_3D ( 'NONE', #212, #302, #271 ) ;
#224 = AXIS2_PLACEMENT_3D ( 'NONE', #50, #146, #226 ) ;
#225 = DIRECTION ( 'NONE',  ( 1.000000000000000000, 0.000000000000000000, 0.000000000000000000 ) ) ;
#226 = DIRECTION ( 'NONE',  ( 1.000000000000000000, 0.000000000000000000, -0.000000000000000000 ) ) ;
#227 = ORIENTED_EDGE ( 'NONE', *, *, #230, .F. ) ;
#228 = AXIS2_PLACEMENT_3D ( 'NONE', #2, #251, #266 ) ;
#229 = PERSON_AND_ORGANIZATION ( #177, #80 ) ;
#230 = EDGE_CURVE ( 'NONE', #159, #90, #142, .T. ) ;
#231 = EDGE_LOOP ( 'NONE', ( #227, #133, #184, #82 ) ) ;
#232 = MECHANICAL_CONTEXT ( 'NONE', #203, 'mechanical' ) ;
#233 = EDGE_LOOP ( 'NONE', ( #131, #32, #214, #303 ) ) ;
#234 = APPLICATION_PROTOCOL_DEFINITION ( 'international standard', 'config_control_design', 1994, #203 ) ;
#235 = AXIS2_PLACEMENT_3D ( 'NONE', #215, #68, #193 ) ;
#236 = CALENDAR_DATE ( 2022, 7, 7 ) ;
#237 = AXIS2_PLACEMENT_3D ( 'NONE', #280, #134, #179 ) ;
#238 = VERTEX_POINT ( 'NONE', #194 ) ;
#239 = CARTESIAN_POINT ( 'NONE',  ( 0.000000000000000000, 0.000000000000000000, 7.000000000000000000 ) ) ;
#240 = CC_DESIGN_DATE_AND_TIME_ASSIGNMENT ( #281, #53, ( #201 ) ) ;
#241 = DIRECTION ( 'NONE',  ( 1.000000000000000000, 0.000000000000000000, 0.000000000000000000 ) ) ;
#242 = DIRECTION ( 'NONE',  ( -0.000000000000000000, -0.000000000000000000, -1.000000000000000000 ) ) ;
#243 = AXIS2_PLACEMENT_3D ( 'NONE', #118, #69, #287 ) ;
#244 = CARTESIAN_POINT ( 'NONE',  ( 6.200000000000001066, 0.000000000000000000, 7.199999999999984190 ) ) ;
#245 = PRODUCT_DEFINITION_SHAPE ( 'NONE', 'NONE',  #201 ) ;
#246 = VERTEX_POINT ( 'NONE', #294 ) ;
#247 = DIRECTION ( 'NONE',  ( 1.000000000000000000, 0.000000000000000000, 0.000000000000000000 ) ) ;
#248 = CLOSED_SHELL ( 'NONE', ( #189, #158, #259, #76, #306, #30, #174, #13, #18 ) ) ;
#249 =( NAMED_UNIT ( * ) SI_UNIT ( $, .STERADIAN. ) SOLID_ANGLE_UNIT ( ) );
#250 = CC_DESIGN_PERSON_AND_ORGANIZATION_ASSIGNMENT ( #12, #209, ( #291 ) ) ;
#251 = DIRECTION ( 'NONE',  ( -0.000000000000000000, -0.000000000000000000, -1.000000000000000000 ) ) ;
#252 = EDGE_CURVE ( 'NONE', #278, #202, #4, .T. ) ;
#253 = DIRECTION ( 'NONE',  ( 1.000000000000000000, 0.000000000000000000, 0.000000000000000000 ) ) ;
#254 = DATE_AND_TIME ( #236, #127 ) ;
#255 = VECTOR ( 'NONE', #270, 1000.000000000000000 ) ;
#256 = SECURITY_CLASSIFICATION_LEVEL ( 'unclassified' ) ;
#257 = ORIENTED_EDGE ( 'NONE', *, *, #267, .T. ) ;
#258 = PERSON_AND_ORGANIZATION_ROLE ( 'creator' ) ;
#259 = ADVANCED_FACE ( 'NONE', ( #25 ), #290, .T. ) ;
#260 = DIRECTION ( 'NONE',  ( 1.224646799147353207E-16, 1.000000000000000000, -0.000000000000000000 ) ) ;
#261 = FACE_OUTER_BOUND ( 'NONE', #233, .T. ) ;
#262 = ORIENTED_EDGE ( 'NONE', *, *, #89, .F. ) ;
#263 = ORIENTED_EDGE ( 'NONE', *, *, #197, .F. ) ;
#264 = VECTOR ( 'NONE', #269, 1000.000000000000000 ) ;
#265 = CARTESIAN_POINT ( 'NONE',  ( 0.000000000000000000, 0.000000000000000000, 7.199999999999984190 ) ) ;
#266 = DIRECTION ( 'NONE',  ( -1.000000000000000000, 0.000000000000000000, 0.000000000000000000 ) ) ;
#267 = EDGE_CURVE ( 'NONE', #90, #159, #217, .T. ) ;
#268 = FACE_OUTER_BOUND ( 'NONE', #188, .T. ) ;
#269 = DIRECTION ( 'NONE',  ( -0.000000000000000000, -0.000000000000000000, -1.000000000000000000 ) ) ;
#270 = DIRECTION ( 'NONE',  ( -0.000000000000000000, -0.000000000000000000, -1.000000000000000000 ) ) ;
#271 = DIRECTION ( 'NONE',  ( -1.000000000000000000, 0.000000000000000000, 0.000000000000000000 ) ) ;
#272 = AXIS2_PLACEMENT_3D ( 'NONE', #244, #145, #140 ) ;
#273 = COORDINATED_UNIVERSAL_TIME_OFFSET ( 1, 0, .AHEAD. ) ;
#274 = APPROVAL_DATE_TIME ( #175, #132 ) ;
#275 = ORIENTED_EDGE ( 'NONE', *, *, #276, .T. ) ;
#276 = EDGE_CURVE ( 'NONE', #37, #202, #123, .T. ) ;
#277 = PERSON_AND_ORGANIZATION_ROLE ( 'classification_officer' ) ;
#278 = VERTEX_POINT ( 'NONE', #150 ) ;
#279 = CIRCLE ( 'NONE', #24, 9.000000000000000000 ) ;
#280 = CARTESIAN_POINT ( 'NONE',  ( 0.000000000000000000, 0.000000000000000000, 0.000000000000000000 ) ) ;
#281 = DATE_AND_TIME ( #181, #199 ) ;
#282 = ORIENTED_EDGE ( 'NONE', *, *, #152, .T. ) ;
#283 = AXIS2_PLACEMENT_3D ( 'NONE', #40, #139, #241 ) ;
#284 = FACE_OUTER_BOUND ( 'NONE', #62, .T. ) ;
#285 = DIRECTION ( 'NONE',  ( 0.000000000000000000, 0.000000000000000000, 1.000000000000000000 ) ) ;
#286 = CARTESIAN_POINT ( 'NONE',  ( 0.000000000000000000, 0.000000000000000000, 7.000000000000000000 ) ) ;
#287 = DIRECTION ( 'NONE',  ( 1.000000000000000000, 0.000000000000000000, -0.000000000000000000 ) ) ;
#288 = DIRECTION ( 'NONE',  ( 1.000000000000000000, 0.000000000000000000, 0.000000000000000000 ) ) ;
#289 = EDGE_CURVE ( 'NONE', #238, #37, #52, .T. ) ;
#290 = CYLINDRICAL_SURFACE ( 'NONE', #156, 9.000000000000000000 ) ;
#291 = PRODUCT_DEFINITION_FORMATION_WITH_SPECIFIED_SOURCE ( 'LIBOVOLNÝ', '', #305, .NOT_KNOWN. ) ;
#292 = DIRECTION ( 'NONE',  ( 0.000000000000000000, 0.000000000000000000, 1.000000000000000000 ) ) ;
#293 = DIRECTION ( 'NONE',  ( -0.000000000000000000, -0.000000000000000000, -1.000000000000000000 ) ) ;
#294 = CARTESIAN_POINT ( 'NONE',  ( -6.200000000000001066, 7.592810154713590821E-16, 6.999999999999992006 ) ) ;
#295 = CALENDAR_DATE ( 2022, 7, 7 ) ;
#296 = EDGE_LOOP ( 'NONE', ( #11, #21 ) ) ;
#297 = VECTOR ( 'NONE', #293, 1000.000000000000000 ) ;
#298 = APPROVAL_PERSON_ORGANIZATION ( #107, #132, #153 ) ;
#299 = DIRECTION ( 'NONE',  ( -0.000000000000000000, -0.000000000000000000, -1.000000000000000000 ) ) ;
#300 = CIRCLE ( 'NONE', #272, 0.1999999999999996503 ) ;
#301 = SECURITY_CLASSIFICATION ( '', '', #256 ) ;
#302 = DIRECTION ( 'NONE',  ( -0.000000000000000000, -0.000000000000000000, -1.000000000000000000 ) ) ;
#303 = ORIENTED_EDGE ( 'NONE', *, *, #149, .F. ) ;
#304 = ORIENTED_EDGE ( 'NONE', *, *, #230, .T. ) ;
#305 = PRODUCT ( 'd1a3', 'd1a3', '', ( #232 ) ) ;
#306 = ADVANCED_FACE ( 'NONE', ( #47, #75 ), #129, .T. ) ;
#307 = DIRECTION ( 'NONE',  ( 1.000000000000000000, 0.000000000000000000, 0.000000000000000000 ) ) ;
ENDSEC;
END-ISO-10303-21;
